PrimaNota.ru - самый крупный в мире бесплатный архив песенных текстов, аккордов, табулатур и нот


Harvey Milk - Goodbye Blues - таба, видео

Регистрация Запомнить меня
Войти через:  Facebook Google Twitter Vk Yandex Mail.ru

Harvey Milk - Goodbye Blues - таба, видео

Печатать
Просмотров: 110
Tuning - C (2 Steps down)
Tabbed by: Sebastian Email: 08533@web.de

Goodbye Blues from the album Life... the Best Game in Town.

"Intro"

  PM           PM
|--------------------------|
|--------------------------|
|------7--------------5----|
|-2.---7--------2.----5----|
|-2.---5--------2.----3----|
|-0.---5--------0.----3----|


|------------------|
|------------------|
|-------------2----|
|-----------2-2----|
|-------2-5---0----|
|-2-4-5------------|

"Verse"
  PM    PM .
|-----------------------|
|-----------------------|
|-----7------------5----|
|-2.--7--2.--2.----5----|
|-2.--5--2.--2.----3----|
|-0.--5--0.--0.----3----|


|----------------------|
|----------------------|
|-------------2.--4----|
|-----------2-2.--2----|
|-------2-5---0.-------|
|-2-4-5----------------|


|-----------------------------|
|-----------------------------|
|-------------7----------5----|
|-2.----2.----7----2.----5----|
|-2.----2.----5----2.----3----|
|-0.----0.----5----0.----3----|


|------------------------|
|------------------------|
|-------------2.--7------|
|-----------2-2.--5-9----|
|-------2-5---0.----7----|
|-2-4-5------------------|

"Chrosu"

Damn sure got 'em...

|--------------------|
|--------------------|
|-2----------7--4----|
|-2----0--2--5--2----|
|-0------------------|
|--------------------|


|----------------------|
|----------------------|
|--------------7--4----|
|-6------------5--2----|
|-6----5----7----------|
|-4--------------------|


|-------------------------|
|-------------------------|
|----------------7---4----|
|-5--------------5---2----|
|-5----5----7-------------|
|-3-----------------------|


|---------------------|
|---------------------|
|-----------7----4----|
|-----------5----2----|
|-5----2--------------|
|-3----0--------------|

Then back to Verse, then after the 2nd time back to Break, then back to the first Verse riff

And then that fucking Solo. I'm not tabbing that, it's supposed to be  parody so just go all
Guitar Center with the whammy bar.

This is played underneath the solo

|-----------------------------|--------|
|-----------------------------|--------|
|-----------------------------|--------|
|-------------0-2-------------|-0-2----|
|-------2-5-2-----------2-5-2-|--------| etc
|-2-4-5-----------2-4-5-------|--------|


|-----------------------------|--------|
|-----------------------------|--------|
|-----------------------------|--------|
|-------------5-2-------------|-5-2----|
|-------2-5-2-----------2-5-2-|--------| etc
|-2-4-5-----------2-4-5-------|--------|

Solo End

|-------------------------|
|-------------------------|
|-------------------------|
|-7----7----7--------5----|
|-5----5----5--------3----|
|-5----5----5--------3----|

Outro Verse along with a slightly more serious solo

|-----------------------------------|
|-----------------------------------|
|-----------------------------------|
|-2----2----7--------7----7----9----|
|-2----2----5--------5----5----7----|
|-0----0----5--------5----5----7----|


|-----------------------------------|
|-----------------------------------|
|-----------------------------------|
|-2----2----5--------5----2----7----|
|-2----2----5--------5----2----7----|
|-0----0----3--------3----0----5----|


Добавлено: 16.09.2015
Вам также может быть интересно:
Другие материалы по этой песне:
  • Аккорды и текст

Страница создана 16.09.2015
http://primanota.ru/harvey-milk/goodbye-blues-chords.htm
Привет, Гость.
Предлагаем пройти революционный курс по гитаре.
Подарок от PrimaNota.Ru, забирай!