PrimaNota.ru - самый крупный в мире бесплатный архив песенных текстов, аккордов, табулатур и нот


Harvey Milk - Brown Water - таба, видео

Регистрация Запомнить меня
Войти через:  Facebook Google Twitter Vk Yandex Mail.ru

Harvey Milk - Brown Water - таба, видео

Печатать
Просмотров: 61
-------------------------------------------------------------------------------
                             Brown Water - Harvey Milk
-------------------------------------------------------------------------------
Tabbed by:Karlinn
E-mail:

Tuning:
DADGBe
G1
e|---------------------------------------------------------------------------|
B|---------------------------------------------------------------------------|
G|---------------------------------------------------------------------------|
D|---------------------------------------------------------------------------|
A|--------10----------------------10-------------------8---------------------|
D|10-------------------9-------------------7---------------------------------|
G1
e|---------------------------------------------------------------------------|
B|---------------------------------------------------------------------------|
G|---------------------------------------------------------------------------|
D|---------------------------------------------------------------------------|
A|----------7--------------------5------------------------3------------------|
D|5-------------------3-----------------------2------------------------------|
G1 
e|---------------------------------------------------------------------------|
B|---------------------------------------------------------------------------|
G|---------------------------------------------------------------------------|
D|---------------------------------------------------------------------------|
A|-----------2-----------3---------------------------------------------------|
D|5----------------------5---------------------------------------------------|
G2 intro solo?
e|---------------------------------------------------------------------------|
B|---------------------------------------------------------------------------|
G|---------------------------------------------------------------------------|
D|14---------14h15-----12----12----14----10----12-----14---------------------|
A|---------------------------------------------------------------------------|
D|---------------------------------------------------------------------------|
G2
e|---------------------------------------------------------------------------|
B|---------------------------------------------------------------------------|
G|---------------------------------------------------------------------------|
D|14--------14h15-----12----12-----14----10-----10----10s9------8----9---10--|
A|---------------------------------------------------------------------------|
D|---------------------------------------------------------------------------|



************************************

| /   slide up
| \   slide down
| h   hammer-on
| p   pull-off
| ~   vibrato
| +   harmonic
| x   Mute note
| b   Bend
| pb  Pre-bend
| br  Bend release
| pbr Pre-bend release
| brb Bend release bend

************************************
Добавлено: 12.06.2016
Другие материалы по этой песне:
  • Аккорды и текст

Страница создана 12.06.2016
http://primanota.ru/harvey-milk/brown-water-chords.htm
Привет, Гость.
Предлагаем пройти революционный курс по гитаре.
Подарок от PrimaNota.Ru, забирай!