PrimaNota.ru - самый крупный в мире бесплатный архив песенных текстов, аккордов, табулатур и нот


Harvey Danger - Picture Picture - текст песни, таба, видео

Регистрация Запомнить меня
Войти через:  Facebook Google Twitter Vk Yandex Mail.ru

Harvey Danger - Picture Picture - текст песни, таба, видео

Печатать
Просмотров: 207
Уроки эстрадного вокала в Санкт-Петербурге
-------------------------------------------------------------------------------
                          PICTURE PICTURE - Harvey Danger
-------------------------------------------------------------------------------
Tabbed by: itsonlycapital
Email: itsonlycapital@gmail.com

Tuning: Standard


Intro/Verse:

   PM________________| PM_______|          PM______|
e||-----------------|-------------------|--------------------|
B||-----------------|-------------------|--------------------|
G||-----------------|-------------------|--------------------|
D||-----------------|-------------------|--------------------|
A||-9-9-9-9-9-9-9-9-|-9-9-9-9-9-9-12\---|-7-7-7-7-7-14-14\---|
E||-7-7-7-7-7-7-7-7-|-7-7-7-7-7-7-10\---|-5-5-5-5-5-12-12\---|

  PM__________|        PM____|
e|-------------------|---------------------|
B|-------------------|---------------------|
G|-------------------|---------------------|
D|-------------------|---------------------|
A|-9-9-9-9-9-9-12\---|-7-7-7-7-12-12-12\---|
E|-7-7-7-7-7-7-10\---|-5-5-5-5-10-10-10\---|



Pre-Chorus:

e|-----------------|-----------------|-----------------|-----------------|
B|-----------------|-----------------|-----------------|-----------------|
G|-----------------|-----------------|-----------------|-----------------|
D|-4-4-3-3-4-4-3-4-|-4-3-3-4-4-3-4-3-|-4-4-3-3-4-4-3-4-|-4-3-3-4-4-3-4-3-|
A|-2-2-2-2-2-2-2-2-|-2-2-2-2-2-2-2-2-|-5-5-5-5-5-5-5-5-|-5-5-5-5-5-5-5-5-|
E|-----------------|-----------------|-----------------|-----------------|

e|-----------------|-----------------|-----------------|-----------------|
B|-----------------|-----------------|-----------------|-----------------|
G|-----------------|-----------------|-----------------|-----------------|
D|-4-4-3-3-4-4-3-4-|-4-3-3-4-4-3-4-3-|-4-4-4-4-4-4-4-4-|-4-4-4-4-4-4-4-4-|
A|-0-0-0-0-0-0-0-0-|-0-0-0-0-0-0-0-0-|-4-4-4-4-4-4-4-4-|-4-4-4-4-4-4-4-4-|
E|-----------------|-----------------|-2-2-2-2-2-2-2-2-|-2-2-2-2-2-2-2-2-|



Chorus:

e|-----------------|------------------|-----------------------|------------------|
B|-----------------|------------------|-----------------------|------------------|
G|-----------------|------------------|-----------------------|------------------|
D|-9-9-9-9-9-9\--4-|---4---4---4-4/---|-12---12-12-12-12-12\7-|---7---7---7-7-7/-|
A|-9-9-9-9-9-9\--4-|---4---4---4-4/---|-12---12-12-12-12-12\7-|---7---7---7-7-7/-|
E|-7-7-7-7-7-7\--2-|---2---2---2-2/---|-10---10-10-10-10-10\5-|---5---5---5-5-5/-|



Bridge:

e|-----------------|-----------------|-----------------|-----------------|
B|-----------------|-----------------|-----------------|-----------------|
G|-4-4-----4-4-----|-4-4-----2---2---|-4-4-----4-4-----|-4-4-----2---2---|
D|-4-4-x-x-4-4-x-x-|-4-4-x-x-2---2---|-4-4-x-x-4-4-x-x-|-4-4-x-x-2---2---|
A|-2-2-x-x-2-2-x-x-|-2-2-x-x-0---0---|-2-2-x-x-2-2-x-x-|-2-2-x-x-0---0---|
E|-----x-x-----x-x-|-----x-x---------|-----x-x-----x-x-|-----x-x---------|

(slight harmonic at 3rd fret on those dead notes)


End on

e|-----------------||
B|-----------------||
G|-----------------||
D|-9-9\------------||
A|-9-9\------------||
E|-7-7\------------||



| /  slide up
| \  slide down
| h  hammer-on
| p  pull-off
| ~  vibrato
| +  harmonic
| x  Mute note
===============================================================================
Добавлено: 29.06.2012
Другие материалы по этой песне:
  • Аккорды и текст

Страница создана 29.06.2012
http://primanota.ru/harvey-danger/picture-picture-chords.htm
Привет, Гость.
Предлагаем пройти революционный курс по гитаре.
Подарок от PrimaNota.Ru, забирай!