PrimaNota.ru - самый крупный в мире бесплатный архив песенных текстов, аккордов, табулатур и нот


Haruna Luna - Kimi-iro Signal - аккорды и текст, видео

Регистрация Запомнить меня
Войти через:  Facebook Google Twitter Vk Yandex Mail.ru

Haruna Luna - Kimi-iro Signal - аккорды и текст, видео

Печатать
Просмотров: 170
Уроки эстрадного вокала в Санкт-Петербурге
Kimi-iro Signal
Haruna Luna
Intro chords Gb Db Bb Eb B x2 Ab Db

Verse:
Gb                                     Db D 
Houkago futari de sugoshita kyoushitsu 
       Eb                          Db      Gb
Tsukue no ue muchuu de hazumu kimi no koe 
B                    Bb       Eb
Donkan na ki mi no sono taido ga 
       Ab          Db           Gb
Itsumo watashi wo ijiwaru ni saseru no 


Pre Chorus:
      B         Db      Bb         Eb
Hitoribocchi da to omou toki mo aru 
    Ab     Bb      Eb
Namida tomerarenai hi mo aru 
    B         Db            Bb       Eb
Hontou no watashi wo mitsumete hoshi no 
      E                  Db  B  Bb   Db
Kitto tsutawaru to shinjite iru yo 


Chorus:
         Gb                         Db    D    
Kimi wa itsu datte itsu datte kawaranai kara 
           Eb                       Db    Gb
Watashi ga nankai mo nankai mo SHIGUNARU okutte ageru 
B                Bb      Eb
Yumemita ano oka mezashite 
    Ab                      E        Db
Kujike sou na toki mo ganbare souda yo 
         B
Kimi ga iru kara 


Intro chords Gb Db Bb Eb B x2 Ab Db


Verse:
Gb                        Db     D 
Futari aruku itsumo no kaerimichi 
      Eb                         Db      Gb
Namae no nai kimochi ga mebae hajimeteru 
B                    Bb       Eb
Dakedo fumidasu tame no yuuki wa
    Ab         Db          Gb
Sukoshi dake mada tooku ni aru 
   

Pre Chorus:
    B         Db   Bb          Eb 
Nanimo motte inakatta watashi ni 
     Ab     Bb         Eb 
Kimi ga kureta kokoro no kagi wa 
     B         Db     Bb         Eb
Mune no oku de nemutteta tsubomi ni 
     E                    Db B  Bb  Db 
Haru no hizashi wo todokete kureru 


Chorus:
        Gb                     Db       D 
Kimi wa itsu datte itsu datte omotteru kara 
          Eb 
Kitto ne itsu no hi ka itsu no hi ka 
     Db    Gb
Chanto wakatte hoshii 
B            Bb      Eb
Futari de egaita mirai wo 
       Ab                    E          Db
Motto chikai kyori de mitsumerareru you ni 
         B      Db
Yumemiteru kara 



Solo is the same chords as Pre Chorus:
B Db Bb Eb Ab Db Gb
B Db Bb Eb E Db

e|---------------------------------------------------------------------------------|
B|-b15-b15---br15-13-15-----13-15---15-13-12---13-12-10-12-10-8-----7--------------|
G|-----------------------16---------------------------------------8---8------------|
D|---------------------------------------------------------------------------------|
A|---------------------------------------------------------------------------------|
E|---------------------------------------------------------------------------------|

e|---------------------------------------------------------------------------|
B|-----------6-7-6-7-6-9-7-11-9-12-11--15-13-12-13-12-----------12-13--15----|
G|-4-6-8-6-8-------------------------------------------14-12-14--------------|
D|---------------------------------------------------------------------------|
A|---------------------------------------------------------------------------|
E|---------------------------------------------------------------------------|

e|---------15-14--15-17-19-19b20-19b20br19-17-15-----------------------------|
B|---17-17-------------------------------------------------------------------|
G|---------------------------------------------------------------------------|
D|---------------------------------------------------------------------------|
A|---------------------------------------------------------------------------|
E|---------------------------------------------------------------------------|

e|-----------------------------------------------20b22-22br20-19-17-15-17---|
B|----------------------------------12-12-15-15------------------------------|
G|--9-9-9-9/11-11-11-11/13-13-14-14------------------------------------------|
D|---------------------------------------------------------------------------|
A|---------------------------------------------------------------------------|
E|---------------------------------------------------------------------------|

Post Solo:
Ab     Bb       B            Bb
Ano hi fureta kimi no SHIGUNARU 
Ab            Bb       B     Db
Hajimari no tobira ga hiraku yo 


(Ano ne)


Chorus:
        Gb                            Db  D 
Kimi wa itsu datte itsu datte kawaranaide ne 
           Eb                         Db    Gb
Watashi ni nankai mo nankai mo SHIGUNARU okutte hoshii 
B                  Bb    Eb
Kagayaku ano niji no you ni 
     Ab                 E        Db
Namida no ato mo kiseki ni kaeru yo 



         Gb                         Db    D    
Kimi wa itsu datte itsu datte kawaranai kara 
           Eb                       Db    Gb
Watashi ga nankai mo nankai mo SHIGUNARU okutte ageru 
B                Bb      Eb
Yumemita ano oka mezashite 
    Ab                      E        Db
Kujike sou na toki mo ganbare souda yo 
         Gb
Kimi ga iru kara 

Intro chords  Gb Db Bb Eb B x2 Ab Db 

End Chords  B Gb

************************************

| /   slide up
| \   slide down
| h   hammer-on
| p   pull-off
| ~   vibrato
| +   harmonic
| x   Mute note
| b   Bend
| pb  Pre-bend
| br  Bend release
| pbr Pre-bend release
| brb Bend release bend

************************************
Добавлено: 20.11.2015
Вам также может быть интересно:
Другие материалы по этой песне:
  • Аккорды и текст

Страница создана 20.11.2015
http://primanota.ru/haruna-luna/kimi-iro-signal-chords.htm
Привет, Гость.
Предлагаем пройти революционный курс по гитаре.
Подарок от PrimaNota.Ru, забирай!