PrimaNota.ru - самый крупный в мире бесплатный архив песенных текстов, аккордов, табулатур и нот


Harry Chapin - Cats Iin The Cradle - бас-таба, видео

Регистрация Запомнить меня
Войти через:  Facebook Google Twitter Vk Yandex Mail.ru

Harry Chapin - Cats Iin The Cradle - бас-таба, видео

Печатать
Просмотров: 133
Уроки эстрадного вокала в Санкт-Петербурге
Intro:

G|-----------------------|
D|-1-0-------------------|
A|-----3-1---------------|
E|---------4-3-1----4-3-1|

Pre Chorus:

G|------------|
D|-3-3-3-3-3-3|
A|------------|
E|------------|

Chorus:

G|-----------------------------------------------------------|
D|--------1-1-1-1------------------------1-1-1-1-------------|
A|------------------------1-1-1-1----------------------------|
E|-1-1-1-1--------4-4-4-4---------1-1-1-1--------4-3-1--4-3-1|

Verse:

G|-----------------------------|
D|--3------3------3----1-0-----|
A|-3------3------3---------1---|
E|---------------------------1-|



Order:

Intro
Pre Chorus
Chorus
Verse
Intro
Chorus
...
...
... 
ect
ect
Добавлено: 19.07.2012
Другие материалы по этой песне:
  • Аккорды и текст

Страница создана 19.07.2012
http://primanota.ru/harry-chapin/cats-iin-the-cradle-chords.htm
Привет, Гость.
Предлагаем пройти революционный курс по гитаре.
Подарок от PrimaNota.Ru, забирай!