PrimaNota.ru - самый крупный в мире бесплатный архив песенных текстов, аккордов, табулатур и нот


Harry And The Potters - Firebolt - таба, видео

Регистрация Запомнить меня
Войти через:  Facebook Google Twitter Vk Yandex Mail.ru

Harry And The Potters - Firebolt - таба, видео

Печатать
Просмотров: 127
There are two ways you can play this song:

First=======================================================================
============================================================================

Chorus:
   E       G      A           B           E        G        A    B     
I got the best present for Christmas! But I don't want to gloat.
 E                 G         A        B        E         G      A    B
All the kids at school are gonna be jealous! I got the Firebolt!

Verse 1:
 B                  E
Best broom in the world I could have ridden.
 B                      E
Conveniently after my Nimbus 2000 was smitten. 
 B         E                      B                           E
McGonagall took it away from me. Why'd you have to tell her, Hermione?


Chorus:
   E       G      A           B           E        G        A    B     
I got the best present for Christmas! But I don't want to gloat.
 E                 G         A        B        E         G      A    B
All the kids at school are gonna be jealous! I got the Firebolt!

Verse 2:
 B                 E                 B                     E
Riding that broom would be so fun. Putting dust on Malfoy's 2001.
 B          E                     B                           E
McGonagall took it away from me. Why'd you have to tell her, Hermione?


Chorus:
   E       G      A           B           E        G        A    B     
I got the best present for Christmas! But I don't want to gloat.
 E                 G         A        B        E         G      A    B
All the kids at school are gonna be jealous! I got the Firebolt!


Solo?:

e|-----------------------------------------------------------------|
B|-----------------------------------------------------------------|
G|----9-9-9-xx-7-7-7-xx-6-6-6-4-4/9-9-9-xx-7-7-7-xx-9-9-7-9-xxxx-9-|
D|---------------------------------------------------------------9-|
A|---------------------------------------------------------------7-|
E|-----------------------------------------------------------------|

Chords:   E    G    A    B
E |---------------------------|
B |---------------------------|
G |---------------------------|
D |-------2----5----7----9----|
A |-------2----5----7----9----|
E |-------0----3----5----7----|

 
Second=====================================================================
=======================Follows Vocals======================================


Chorus:
   E       D     A           B           E         D      GG A  B   
I got the best present for Christmas! But I don't want to gloat.
 E                 G         A        B        E         D   GG A  B
All the kids at school are gonna be jealous! I got the Firebolt!

Verse 1:
 B                  E
Best broom in the world I could have ridden.
 B                      E
Conveniently after my Nimbus 2000 was smitten. 
 B         E                      B                           E
McGonagall took it away from me. Why'd you have to tell her, Hermione?


Chorus:
   E       G      A           B           E        G        A    B     
I got the best present for Christmas! But I don't want to gloat.
 E                 G         A        B        E         G      A    B
All the kids at school are gonna be jealous! I got the Firebolt!

Verse 2:
 B                 E                 B                     E
Riding that broom would be so fun. Putting dust on Malfoy's 2001.
 B          E                     B                           E
McGonagall took it away from me. Why'd you have to tell her, Hermione?


Chorus:
   E       D     A           B           E         D      GG A  B   
I got the best present for Christmas! But I don't want to gloat.
 E                 G         A        B        E         D   GG A  B
All the kids at school are gonna be jealous! I got the Firebolt!


Solo?:

e|-----------------------------------------------------------------|
B|-----------------------------------------------------------------|
G|----9-9-9-xx-7-7-7-xx-6-6-6-4-4/9-9-9-xx-7-7-7-xx-9-9-7-9-xxxx-9-|
D|---------------------------------------------------------------9-|
A|---------------------------------------------------------------7-|
E|-----------------------------------------------------------------|


Chords:   E    D    A    B    G          (in Verse you can use this B)
E |--------------------------------|          e|-------|
B |--------------------------------|          B|-------|
G |-------9----7-------------------|          G|---4---|
D |-------9----7----7----9----5----|          D|---4---|
A |-------7----5----7----9----5----|          A|---2---|
E |-----------------5----7----3----|          E|-------|

-hphphp
Добавлено: 29.06.2012
Другие материалы по этой песне:
  • Аккорды и текст

Страница создана 29.06.2012
http://primanota.ru/harry-and-the-potters/firebolt-chords.htm
Привет, Гость.
Предлагаем пройти революционный курс по гитаре.
Подарок от PrimaNota.Ru, забирай!