PrimaNota.ru - самый крупный в мире бесплатный архив песенных текстов, аккордов, табулатур и нот


Harrod Jason - Your Voice At Tidewater - таба, видео

Регистрация Запомнить меня
Войти через:  Facebook Google Twitter Vk Yandex Mail.ru

Harrod Jason - Your Voice At Tidewater - таба, видео

Печатать
Просмотров: 79
Уроки эстрадного вокала в Санкт-Петербурге
Your Voice At Tidewater (Tidewater)
Written By: Jason Harrod
Album(s): Harrod & Funck-Harrod And Funck
          Harrod & Funck-Live
Transcribed By: Benjamin Padula

*******-=KEY=-*******
* h = hammer-on     *
* p = pull-off      *
* s = slide up/down *
*********************

Chords:
 G/F              Fmaj7               Bb C  D
e-0-               -0-               -X--X--X-
b-3-pinky          -1-index finger   -3--5--7-
g-0-               -2-middle finger  -3--5--7-
d-3-ring finger    -3-ring finger    -3--5--7-
a-X-               -X-               -1--3--5-
e-3-middle finger  -1-thumb          -X--X--X-


Part 1

Intro

  G/F
e---------------------------------------------------------------- 
b-----------3-------3-------3---------------3-------3-------3---- 
g-------0-------0-------0-------0-------0-------0-------0-------0 
d-----3-------3-------3-------3-------3-------3-------3-------3-- 
a---------------------------------------------------------------- 
e-3-------3-------3-------3-------3-------3-------3-------3------

  G/F                           Fmaj7
e-1p0-------0---------------------------------------------------- 
b-------1---------3-----0---3-------1-------1-------1------------ 
g---------------------------------------2-------2-------2---0---0 
d-----3-------3-------3-------3-------3-------3-------3-------3-- 
a---------------------------------------------------------------- 
e-3-------3-------3-------3-------1-------1-------1-------1------


Part 2

Verse

  G/F
e---------------------------------------------------------------- 
b-----------3-------3-------3---------------3-------3-------3---- 
g-------0-------0-------0-------0-------0-------0-------0-------0 
d-----3-------3-------3-------3-------3-------3-------3-------3-- 
a---------------------------------------------------------------- 
e-3-------3-------3-------3-------3-------3-------3-------3------

  G/F                           Fmaj7
e---------------------------------------------------------------- 
b-----------3-------3-------3-------1-------1-------1------------ 
g-------0-------0-------0---------------2-------2-------2---0---0 
d-----3-------3-------3-------3-------3-------3-------3-------3-- 
a---------------------------------------------------------------- 
e-3-------3-------3-------3-------1-------1-------1-------1------

This is basically the riff for the entire song repeated over and 
over again except for the chorus.  You can get some relief from 
repetition by playing the open g in the G/F chord again when you 
hit the b-string on the third fret or by playing an open b-string 
once in a while instead of always playing the b-string on the 
third fret.  Just listen to the recording from the Live album for 
more ideas.  Also, to spruce up the Fmaj7 chord, I've suggested 
two variations for that part of the progression below:

Fmaj7 (suggestion #1)
e---------------0---------------- 
b---1-------1-------1------------ 
g-------2---------------2---0---0 
d-----3-------3-------3-------3-- 
a-------------------------------- 
e-1-------1-------1-------1------

Fmaj7 (suggestion #2)
e---------------0-------0-------- 
b---1-------1-------1------------ 
g-------2-------------------0---0 
d-----3-------3-------3-------3-- 
a-------------------------------- 
e-1-------1-------1-------1------


Part 3

Chorus

Fmaj7    G/F    Fmaj7    G/F
e---0---0---0---0---0---0---0---0 
b---1---1---3---3---1---1---3---3 
g---2---2---0---0---2---2---0---0 
d-----3-------3-------3-------3-- 
a-------------------------------- 
e-1-------3-------1-------3------

Repeat this for each line of the chorus.
Once again, don't limit yourself to 
what's tabbed out here...embellish.


Part 4

Bridge (Lay your body down.)

  Bb            C  G/F
e---------------------------------------------------------------- 
b---------3---3s5-------------3-------3-------3------------------ 
g-------3-----3s5-----0---0-------0-------0-------0-------------- 
d-----3-------3s5-------3-------3-------3-------3---------------- 
a-1-----------1s3------------------------------------------------ 
e-------------------3-------3-------3-------3--------------------

  Bb            C   D                   G/F (Back to Part 2)
e---------------------------------------------------------------- 
b---------3---3s5---7-------------------------------------------- 
g-------3-----3s5---7------------------0------------------------- 
d-----3-------3s5---7-------------------------------------------- 
a-1-----------1s3---5----5s3-1---1---3--------------------------- 
e------------------------------3---------3-----------------------


Intro:
(1)

Verse1:
(2)

(2)

Verse2:
(2)

(2)

Chorus (come come):
(3)
(3)
(3)
(3)

Bridge:
(4)

Repeat remaining verses and Chorus the same as the first.  You just 
have to 
repeat the bridge a few more times and improvise some verses with 
humming 
between bridges.

If there are still some blanks that need filled in, listen to the 
recording a few more times either from Harrod & Funck's Live album 
or their self-titled, second record or email me with a specific question.

For a version of this tab complete with lyrics, go to:
http://www.dickinson.edu/~padulab/harrodandfunck1.html .  I have 
permission 
from Jason Harrod to have his lyrics on my site.  To sort of prove that, 
if you go to Jason Harrod's website and look under the news tab, there's a 
link from his site to mine in case someone is skeptical.  If you go to this 
url, 
it should be easy enough to navigate to the discography page with lyrics 
and tabs.  Also, if this tab is out of synch (the font should be courier or 
courier new), then go to the version on my site because it is in synch 
and in the proper font.

Transcribed By: Benjamin Padula
Email: padulab@dickinson.edu
Homepage: www.dickinson.edu/~padulab

For more on Harrod & Funck (Jason Harrod and Brian Funck) 
or Jason Harrod, visit the following sites:

Harrod & Funck: www.dickinson.edu/~padulab/harrodandfunck1.html
Jason Harrod: www.jasonharrod.com

~~~~~~~~~~~~~~~~~~~~~~~~~~~~~~~~~~~~~~~~~~~~~~~~~~~~~~~~
A world of fun awaits you at http://www.dickinson.edu/~padulab.
~~~~~~~~~~~~~~~~~~~~~~~~~~~~~~~~~~~~~~~~~~~~~~~~~~~~~~~~
     
Добавлено: 25.06.2013
Вам также может быть интересно:
Другие материалы по этой песне:
  • Аккорды и текст

Страница создана 25.06.2013
http://primanota.ru/harrod-jason/your-voice-at-tidewater-chords.htm
Привет, Гость.
Предлагаем пройти революционный курс по гитаре.
Подарок от PrimaNota.Ru, забирай!