PrimaNota.ru - самый крупный в мире бесплатный архив песенных текстов, аккордов, табулатур и нот


Harrisson Jc - Mexican Vacation - бас-таба, видео

Регистрация Запомнить меня
Войти через:  Facebook Google Twitter Vk Yandex Mail.ru

Harrisson Jc - Mexican Vacation - бас-таба, видео

Печатать
Просмотров: 54
Mexican Vacation.btab
JC Harrisson
TablEdited by Poppamies
Tuning : E A D G 	Time Signature: 4/4

 tempo 158       |       |        |       |       |       |        
|--------------------------------|2-------------------------------|
|--------------------------------|--------------------------------|
|--------------------------------|--------------------------------|
|--------------------------------|--------------------------------|

 |       |       |       |        |       |       |       |        
|--------------------------------|--------------------------------|
|2-------------------------------|------------------------1-------|
|--------------------------------|2---------------------------2---|
|--------------------------------|--------------------------------|

 |       |       |       |        |       |       |       |        
|--------------------------------|--------------------------------|
|--------------------------------|--------------------------------|
|------------------------2-------|------------4-----------2-------|
|0-----------4-------------------|0-------------------------------|

 |       |       |       |        |       |       |       |        
|--------------------------------|--------------------------------|
|--------------------------------|--------------------------------|
|------------------------2-------|------------------------2-------|
|0-----------4-------------------|0-----------4-------------------|

 |       |       |       |        |       |       |       |        
|--------------------------------|--------------------------------|
|--------------------------------|------------1-----------4---4---|
|------------------------4-------|2-------------------------------|
|0-----------4-------------------|--------------------------------|

 |       |       |       |        |       |       |       |        
|--------------------------------|--------------------------------|
|------------1-----------4-------|------------1-----------4-------|
|2-------------------------------|2-------------------------------|
|--------------------------------|--------------------------------|

 |       |       |       |        |       |       |       |        
|--------------------------------|--------6---4-------4-----------|
|------------1-----------4-------|4-6-------------6-------6---4---|
|2-------------------------------|--------------------------------|
|--------------------------------|--------------------------------|

 |       |       |       |        |       |       |       |        
|------------1-----------4-------|------------1-----------4-------|
|2-------------------------------|2-------------------------------|
|--------------------------------|--------------------------------|
|--------------------------------|--------------------------------|

 |       |       |       |        |       |       |       |        
|------------1-----------4-------|2-------------------------------|
|2-------------------------------|------------4-----------2-------|
|--------------------------------|--------------------------------|
|--------------------------------|--------------------------------|

 |       |       |       |        |       |       |       |        
|--------------------------------|--------------------------------|
|------------------------2-------|--------------------------------|
|0-----------4-------------------|------------------------3h--4---|
|--------------------------------|0-----------4-------------------|

 |       |       |       |        |       |       |       |        
|--------------------------------|--------------------------------|
|------------1-----------4-------|2-----------2-------------------|
|2-------------------------------|----------------4-------2-------|
|--------------------------------|--------------------------------|

 |       |       |       |        |       |       |       |        
|--------------------------------|--------------------------------|
|--------------------------------|------and so on.........--------|
|--------------------------------|--------------------------------|
|0-------------------------------|--------------------------------|

Transcribe! 6.0 transcription http://www.seventhstring.demon.co.uk/
Created with TablEdit http://www.tabledit.com/
http://www.geocities.com/jani_bjorklund/janis.html

Jan Bjorklund, Finland
     
Добавлено: 31.08.2013
Другие материалы по этой песне:
  • Аккорды и текст

Страница создана 31.08.2013
http://primanota.ru/harrisson-jc/mexican-vacation-chords.htm
Привет, Гость.
Предлагаем пройти революционный курс по гитаре.
Подарок от PrimaNota.Ru, забирай!