PrimaNota.ru - самый крупный в мире бесплатный архив песенных текстов, аккордов, табулатур и нот


Harris Jayaraj - Vaaranam Aayiram- Mundhinam Parthene Guitars - таба, видео

Регистрация Запомнить меня
Войти через:  Facebook Google Twitter Vk Yandex Mail.ru

Harris Jayaraj - Vaaranam Aayiram- Mundhinam Parthene Guitars - таба, видео

Печатать
Просмотров: 81
-------------------------------------------------------------------------------
------------------Varanam Aayiram- Mundhinam Parthene- Tabs --------------------------
Tabbed by:Cruze
E-mail:cruze27@gmail.com

Tuning:Standard

e|-2---2---3---3---3-----2---2---3---3---3-----------------------------------|
B|---3-----0---------------3-----0-------------------------------------------|
G|---------0---------------------0-------------------------------------------|
D|---------------------------------------------------------------------------|
A|---------------------------------------------------------------------------|
E|---------------------------------------------------------------------------|

e|------3---1---1---1----0-----------0---------------------------------------|
B|--3-3-----1---------------3--1-----3---5---3-3-----------------------------|
G|----------0------------------------0---------------------------------------|
D|---------------------------------------------------------------------------|
A|---------------------------------------------------------------------------|
E|---------------------------------------------------------------------------|

e|---------3--5----7--5-5-----------3--5----7--5-5---------------------------|
B|---3--5-----0----------------3--5----0-------------------------------------|
G|------------0------------------------0-------------------------------------|
D|---------------------------------------------------------------------------|
A|---------------------------------------------------------------------------|
E|---------------------------------------------------------------------------|

e|--10-10--5---10-10--5-----8--6--5--3---------------------------------------|
B|---------------------------------------------------------------------------|
G|---------------------------------------------------------------------------|
D|---------------------------------------------------------------------------|
A|---------------------------------------------------------------------------|
E|---------------------------------------------------------------------------|


e|---3-8-7-5---3-5--2-3----3-8-7-5---3-5--2-3--------------------------------|
B|---------------------------------------------------------------------------|
G|---------------------------------------------------------------------------|
D|---------------------------------------------------------------------------|
A|---------------------------------------------------------------------------|
E|---------------------------------------------------------------------------|

e|--3--10--10--10---10-10-10--10\12--------10---8---7---5--------------------|
B|---------------------------------------------------------------------------|
G|---------------------------------------------------------------------------|
D|---------------------------------------------------------------------------|
A|---------------------------------------------------------------------------|
E|---------------------------------------------------------------------------|

e|--7-7-8--7---5-7-5----3-2-------3----8-7-8---------------------------------|
B|-----------------------------5---------------------------------------------|
G|---------------------------------------------------------------------------|
D|---------------------------------------------------------------------------|
A|---------------------------------------------------------------------------|
E|---------------------------------------------------------------------------|

e|--7-7-8--7---5-7-5----3-2-------3----8-7-8---------------------------------|
B|-----------------------------5---------------------------------------------|
G|---------------------------------------------------------------------------|
D|---------------------------------------------------------------------------|
A|---------------------------------------------------------------------------|
E|---------------------------------------------------------------------------|


e|--5-5--6-5---3-5-3--2-----------5-5----------------------------------------|
B|----------------------3----7-7--------8------------------------------------|
G|---------------------------------------------------------------------------|
D|---------------------------------------------------------------------------|
A|---------------------------------------------------------------------------|
E|---------------------------------------------------------------------------|

************************************

| /   slide up
| \   slide down
| h   hammer-on
| p   pull-off
| ~   vibrato
| +   harmonic
| x   Mute note
| b   Bend
| pb  Pre-bend
| br  Bend release
| pbr Pre-bend release
| brb Bend release bend

************************************
Добавлено: 16.08.2015
Вам также может быть интересно:
Другие материалы по этой песне:
  • Аккорды и текст

Страница создана 16.08.2015
http://primanota.ru/harris-jayaraj/vaaranam-aayiram-mundhinam-parthene-guitars-chords.htm
Привет, Гость.
Предлагаем пройти революционный курс по гитаре.
Подарок от PrimaNota.Ru, забирай!