PrimaNota.ru - самый крупный в мире бесплатный архив песенных текстов, аккордов, табулатур и нот


Harold Melvin And The Blue Notes - Where Are All My Friends - бас-таба, видео

Регистрация Запомнить меня
Войти через:  Facebook Google Twitter Vk Yandex Mail.ru

Harold Melvin And The Blue Notes - Where Are All My Friends - бас-таба, видео

Печатать
Просмотров: 46
Where Are All My Friends
Harold Melvin & the Blue Notes
Bass Tab
Bassist: Ronnie Baker

128BPM, 4/4

Intro

|---------------|----------------|---------------|--------------|
|---------------|----------------|---------------|--------------|
|-3------3-3--3-|--3-----3-3-3-5-|--5-----5-5--5-|--5----5-5----|
|----5-3--------|----5-3---------|----7-5--------|----7------7--|

|----------------|---------------|----------------|---------------|
|----------------|---------------|----------------|---------------|
|-3-3-----3-3--3-|--3-----3-3-3--|-5-5-----5-5--5-|--5-----5-5--5-|
|-----5-3--------|----5-3--------|-----7-5--------|----7-5--------|

Verse

|----------------|---------------|---------------|---------------|
|-5-5-----5-5--5-|--5-----5------|---------------|---------------|
|-----7-5--------|----7-5------2-|--2-----2-2--2-|--2-----2-2----|
|----------------|----------5----|----5-2--------|----5-2------5-|

|---------------|---------------|----------------|---------------|
|---------------|---------------|----------------|---------------|
|---------------|---------------|-5-5-----5-5--5-|--5-----555--5-|
|--5-3-0-5-5--5-|--5-3-0-5-5-5--|-----7-5--------|----7-5--------|

|----------------|---------------|---------------|---------------|
|-5-5-----5-5--5-|--5-----5------|---------------|---------------|
|-----7-5--------|----7-5------2-|--2-----2-2--2-|--2-----2-2----|
|----------------|----------5----|----5-2--------|----5-2------5-|

|---------------|---------------|---------------|----------------|
|---------------|---------------|---------------|----------------|
|---------------|---------------|-5------5-5--5-|--5-----555-----|
|--5-3-0-5-5--5-|-5-5-3-0-5-5---|----7-5--------|----7-5-----7-5-|

Pre-Chorus

|-------------|----------------|-------------|----------------|
|-------------|----------------|-------------|----------------|
|-5---5-5---5-|-5-5-5-5--5-5-5-|-5---5-5---5-|-5-5-5--5-5-5-5-|
|-------------|----------------|-------------|----------------|

|-------------|---------------|--------------|----------------|
|-------------|---------------|--------------|----------------|
|-5---5-5---5-|--5-5--555-5-5-|-5---5-5--5-5-|--5-5-5-5-5-5-5-|
|-------------|---------------|--------------|----------------|

Chorus

|----------------|---------------|----------------|-----------------|
|----------------|---------------|----------------|-----------------|
|-3-3-----3-3--3-|--3-----3-3--3h|=5-5-----5-5--5-|-5-5-----5-5-----|
|-----5-3--------|----5-3--------|-----7-5--------|-----7-5-----7-5-|

|----------------|----------------|----------------|-----------------|
|----------------|----------------|----------------|-----------------|
|-3-3-----3-3--3-|--3-----3-3-3-5-|-5-5-----5-5--5-|-5-5-----5-5-5-7-|
|-----5-3--------|----5-3---------|-----7-5--------|-----7-5---------|

Verse

|----------------|----------------|----------------|----------------|
|-5-5-----5-5--5-|--5-----5-------|----------------|----------------|
|-----7-5--------|----7-5-------2-|-2-2-----2-2--2-|-2-2-----2-2----|
|----------------|----------5-5---|-----5-2--------|-----5-2------5-|

|---------------|-----------------|--------------|-----------------|
|---------------|-----------------|--------------|-----------------|
|---------------|-----------------|-5---555-5--5-|-5-5-5-555-5-5-5-|
|--5-3-0-5-5--5-|-5-5-3-0-5-5-5-7-|--------------|-----------------|

|---------------|----------------|----------------|---------------|
|-5------5-5--5-|--5-----5-------|----------------|---------------|
|----7-5--------|----7-5-------2-|-2-2-----2-2--2-|--2-----2-2----|
|---------------|----------5-5---|-----5-2--------|----5-2------5-|

|---------------|----------------|----------------|----------------|
|---------------|----------------|----------------|----------------|
|---------------|----------------|-5--5-5-5-5-5-5-|-5-5-5-5-5-5-5--|
|--5-3-0-5-5--5-|--5-3-0-5-5-5-7-|----------------|---------------5|

Pre-Chorus

|--------------|-----------------|---------------|---------------|
|--------------|-----------------|---------------|---------------|
|-5-5--5-5---5-|-5-5-5-5-5-5-----|-5--5-5-5-5--5-|--5--5-5-5-----|
|--------------|-------------5-7-|---------------|-----------5-7-|

|-------------|--------------|-------------|----------------|
|-------------|--------------|-------------|----------------|
|-5---5-5---5-|--5--5-5------|-5---5-5---5-|--5-5-5-5-5-5-5-|
|-------------|----------5-7-|-------------|----------------|

Chorus

|---------------|--------------|----------------|----------------|
|---------------|--------------|----------------|----------------|
|-3------3-3--3-|--3-----3-3--x|-5-5-----5-5--5-|--5-----5-5-----|
|----5-3--------|----5-3-------|-----7-5--------|----7-5-----7-5-|

|----------------|----------------|----------------|-----------------|
|----------------|----------------|----------------|-----------------|
|-3-3-----3-3--3-|--3-----3-3-----|-5-5-----5-5--5-|-5-5-----555-7-5-|
|-----5-3--------|----5-3-----5-5-|-----7-5--------|-----7-5---------|

Ending

|--------------|--------------|---------------|---------------|
|--------------|--------------|---------------|---------------|
|-4-----4-4--4-|--4-4--4-4----|-6-6-6--6-6--6-|--6-6--6-6-3-3-|
|----4---------|-----------4--|---------------|---------------|

|--------------|----------------|--------------|---------------|
|--------------|----------------|--------------|---------------|
|-4--4--4-4--4-|--4-4-4-4-----6-|--6-6--6-6--6-|--6-6--6-6-3-3-|
|--------------|----------6-6---|--------------|---------------|

|---------------|---------------|--------------|---------------|
|---------------|---------------|--------------|---------------|
|-4--4-4-4-4--4-|--4-4--4-4---6-|--6-6--6-6--6-|--6-6--8-6-8-6-|
|---------------|-----------6---|--------------|---------------|

|--------------|---------------|---------------|----------------|
|--------------|---------------|---------------|----------------|
|-4--4--4-4--4-|--4-4--4-6-8-6-|-6--6-6--6-6-6-|--6-6-6-6-6-6-6-|
|--------------|---------------|---------------|----------------|

|---------------|---------------|----------------|-8-86--------|
|---------------|---------------|----------------|------8-5----|
|-4--4--4-4-4-4-|--4-4--4-4-8-8-|-6-6-6--6-6-6-x-|----------6--|
|---------------|---------------|----------------|-------------|

|--------------|---------------|---------------|-8-8-6-6---------|
|--------------|---------------|---------------|--------8-8-x5---|
|-4--4--4-4--4-|--4-4--4-4-4-6-|--6-6--6-6-6-x-|---------------6-|
|--------------|---------------|---------------|-----------------|

|---------------|---------------|---------------|-8-86----------|
|---------------|---------------|---------------|------8-x5-----|
|-4--4-4-4-4--4-|--4-4--4-4-4-6-|--6-6--6-6-6-x-|-----------8-6-|
|---------------|---------------|---------------|---------------|

|--------------|---------------|---------------|-----------------|
|--------------|---------------|---------------|-----------------|
|-4--4--4-4--4-|--4-4--4-8-8-6s|=8-6-6--6-6--6-|-6-6-6-6-6-6-6-6-|
|--------------|---------------|---------------|-----------------|

|--------------*|
|--------------*|
|-4--4--4-4--4-*|
|--------------*| fade
Добавлено: 20.05.2016
Другие материалы по этой песне:
  • Аккорды и текст

Страница создана 20.05.2016
http://primanota.ru/harold-melvin-and-the-blue-notes/where-are-all-my-friends-chords.htm
Привет, Гость.
Предлагаем пройти революционный курс по гитаре.
Подарок от PrimaNota.Ru, забирай!