PrimaNota.ru - самый крупный в мире бесплатный архив песенных текстов, аккордов, табулатур и нот


Harold Melvin And The Blue Notes - Wake Up Everybody - бас-таба, видео

Регистрация Запомнить меня
Войти через:  Facebook Google Twitter Vk Yandex Mail.ru

Harold Melvin And The Blue Notes - Wake Up Everybody - бас-таба, видео

Печатать
Просмотров: 123
Авторы: Victor Carstarphen, Gene McFadden, John Whitehead

-----------------------------------------------------------------
Wake Up Everybody by Harold Melvin and the Blue Notes
-----------------------------------------------------------------
Tabbed By: Richard Tetta
Email: richard.tetta@gmail.com
Tuning: standard

First part of verse riff-"Wake Up Everybody" etc…:
G|---------------------------------------------------------------|
D|---------------------------------------------------------------|
A|-6-6-----6-6-----6-6-----4-4-4-4-------------------------------|
E|-----4-4-----4-4-----4-4---------------------------------------|

The end of this riff is held for an extra bar on the second and fourth repetitions


Second part of verse riff/"The world won't get no better" etc., refrain:
G|---------------------------------------------------------------|
D|----------1-1-----------4-------------------1-1----------------|
A|2-2-4-2-1-----------4-4---4-----1-2-2-4-2-1-------------4-4----|
E|--------------2-3-4---------2-2-----------------2-3-4----------|

G|---------------------------------------------------------------|
D|---------------------------------------------------------------|
A|--4-4---4-4---4-4----4-4---------------------------------------|
E|2-----2-----2-----2--------------------------------------------|

Then this entire above sequence is repeated for the second verse, and we move to the coda…

Coda:
G|---------------------------------------------------------------|
D|---------------------------------------------------------------|
A|---4-4-2-1-----4-4-2-1-----4-4-2-1-----4-4-2-1-----4-4-2-1-----|
E|-2---------4-2---------4-2---------4-2---------4-2---------4-2-|

This riff repeats until the song fades out.

Добавлено: 14.07.2012
Вам также может быть интересно:
Другие материалы по этой песне:
  • Аккорды и текст

Страница создана 14.07.2012
http://primanota.ru/harold-melvin-and-the-blue-notes/wake-up-everybody-chords.htm
Привет, Гость.
Предлагаем пройти революционный курс по гитаре.
Подарок от PrimaNota.Ru, забирай!