PrimaNota.ru - самый крупный в мире бесплатный архив песенных текстов, аккордов, табулатур и нот


Harms Way - Repression - таба, видео

Регистрация Запомнить меня
Войти через:  Facebook Google Twitter Vk Yandex Mail.ru

Harms Way - Repression - таба, видео

Печатать
Просмотров: 68
-----------------------------------------------------------------
REPRESSION - Harm's Way
-----------------------------------------------------------------
Tabbed by: pubbb69
Email: gnarrrr_killl@yahoo.com

Tuning:Drop D

        I'm not so good with the tunings, I'm sure it's lower than
just a dropped d but this is how I figured out how to play it. Please
feel free to correct anything you think you may be incorrect because I
am not 100% sure on this one, so I was hoping we could collaborate (:


e|---------------------------------------------------------------|
B|---------------------------------------------------------------|
G|---------------------------------------------------------------|
D|---------------------------------------------------------------|
A|-0~----------------------------------12///--00-104313---x8--0--|
D|-0~----------bass line x 4-----------12///--00-104313-------0--|
                                                  ^*Not a 10,
                                                    it's 1-0
e|---------------------------------------------------------------|
B|---------------------------------------------------------------|
G|---------------------------------------------------------------|
D|---------------------------------------------------------------|
A|-////--00-011-133-344-4-10-0--111111---x2----------------------|
D|-////--00-011-133-344-4-10-0--111111---------------------------|
              ^" "              xxxxxx
e|---------------------------------------------------------------|
B|---------------------------------------------------------------|
G|---------------------------------------------------------------|
D|-55-577-788-81010-10-877-777777-877---x2-----------------------|
A|-33-355-566-68-8--8--655-555555-655----------------------------|
D|---------------------------------------------------------------|
                           xxxxxx
e|---------------------------------------------------------------|
B|---------------------------------------------------------------|
G|---------------------------------------------------------------|
D|---------------------------------------------------------------|
A|-0~---00-331-0~---x3-------------------------------------------|
D|-0~---00-331-0~------------------------------------------------|
           ...  
e|---------------------------------------------------------------|
B|---------------------------------------------------------------|
G|---------------------------------------------------------------|
D|---------7----78----57-------------------x6--------------------|
A|-/////---5----56----35----------5----4-------------------------|
D|-/////-----00----00----0000--8----7----------------------------|
             ..    ..    ....
e|---------------------------------------------------------------|
B|---------------------------------------------------------------|
G|---------------------------------------------------------------|
D|----------------5----5\7---x4----------------------------------|
A|-0~~-1~--43~----3----3\5---------------------------------------|
D|-0~~-1~--43~-00---00-------------------------------------------|

e|---------------------------------------------------------------|
B|---------------------------------------------------------------|
G|-drop me a funky bassline--------------------------------------|
D|--------------------------------------------5----5\7-----------|
A|-0~~~~~~~~~~~~~~~~~~~~~~~------011110-------3----3\5--0~~~~~~~~|
D|-0~~~~~~~~~~~~~~~~~~~~~~~------011110----00---00------0~~~~~~~~|
                                  ....     ..   ..
  (1:48)                         (2:00)         (2:13)
 
That's all folks.

| /  slide up
| \  slide down
| h  hammer-on
| p  pull-off
| ~  vibrato
| +  harmonic
| x  Mute note
Добавлено: 03.07.2013
Вам также может быть интересно:
Другие материалы по этой песне:
  • Аккорды и текст

Страница создана 03.07.2013
http://primanota.ru/harms-way/repression-chords.htm
Привет, Гость.
Предлагаем пройти революционный курс по гитаре.
Подарок от PrimaNota.Ru, забирай!