PrimaNota.ru - самый крупный в мире бесплатный архив песенных текстов, аккордов, табулатур и нот


Harlequin - Thinking Of You - таба, видео

Регистрация Запомнить меня
Войти через:  Facebook Google Twitter Vk Yandex Mail.ru

Harlequin - Thinking Of You - таба, видео

Печатать
Просмотров: 86
Авторы: George Belanger, Glen Willows

INTRO:
                               
 E|---------------------------------|
 B|---2-----3-----5-----3-----2-----|
 G|-----2-----2-----2-----2-----2---| x2
 D|-------2-----2-----2-----2-------|
 A|-0-------------------------------|
 E|---------------------------------|

 E|---------------------------------|-----------------0---------------|
 B|---2-----3-----2-----0-----------|-----------------0---------------|
 G|-----2-----2-----2-----2----2-2~-|-----------------2---------------|
 D|-------2-----2-----2-----2--2-2~-|-----------------2---------------|
 A|-0--------------------------0-0~-|-----------------0---------------|
 E|---------------------------------|---------------------------------|
                                                    
 E|---------------------------------|---------------------------------|
 B|---------------------------------|---------------------------------|
 G|---------------------------------|---------------------------------|
 D|---------------------------------|---------------------------------|
 A|-5-4-2-0-------------------------|-5-4-2-5-------------------------|
 E|-5-4-2-0-------------------------|-5-4-2-3-------------------------|

 E|---------------------------------|---------------------------------|
 B|---------------------------------|---------------------------------|
 G|---------------------------------|---------------------------------|
 D|---------------------------------|---------------------------------|
 A|-5-4-2-0-------------------------|-5-4-2-2-------------------------|
 E|-5-4-2-0-------------------------|-5-4-2-0---/17\-0----------------|

1ST VERSE:

A
I was standing on the edge of town
       A
I was doing my best to flag a taxi down
G       D          A
I was thinking of you...

CHORUS:

 E|---------------------------------|---------------------------------|
 B|---------------------------------|---------------------------------|
 G|---------------------------------|---------------------------------|
 D|---------------------------------|---------------------------------|
 A|-5-4-2-0-------------------------|-5-4-2-5-------------------------|
 E|-5-4-2-0-------------------------|-5-4-2-3-------------------------|
   thinking of you,                  Thinking of me

                                
 E|----------------1---------------|-0-------------------------------|
 B|----------------1---------------|-2-------------------------------|
 G|----------------2---------------|-2-------------------------------|
 D|----------------3---------------|-2-------------------------------|
 A|-5-4-2-0--------3---------------|-0---------------3^4-0--3^4-0-0~-|
 E|-5-4-2-0--------1---------------|---------------------------------|

   Thinking of you     next  time   around


2ND VERSE: same as first

CHORUS:

 E|---------------------------------|---------------------------------|
 B|---------------------------------|---------------------------------|
 G|---------------------------------|---------------------------------|
 D|---------------------------------|---------------------------------|
 A|-5-4-2-0-------------------------|-5-4-2-5-------------------------|
 E|-5-4-2-0-------------------------|-5-4-2-3-------------------------|
					       2nd chorus 1st ending
 E|----------------1---------------|-0-------------------------------|
 B|----------------1---------------|-2-------------------------------|
 G|----------------2---------------|-2-------------------------------|
 D|----------------3---------------|-2---------------------------0---|
 A|-5-4-2-0--------3---------------|-0-------------------------------|
 E|-5-4-2-0--------1---------------|-------------0-2-3-----2---------|
  
   Thinking of you     next  time   around

	2nd chorus 2nd ending
 E -1-------0-------2-------2-------|-0-------------------------------|
 B -1-------1-------2-------3-------|-2-------------------------------|
 G -2-------0-------0-------2-------|-2-----------------------------2/|
 D -3-------2-------0-------0-------|-2-------------------------------|
 A -3-------3-------2---------------|-0-------------------------------|
 E -1---------------3---------------|---------------------------------|
5.                 Next    time     around


GUITAR SOLO:

 E ---------------------------------|---------------------------------|
 B ---------------------------------|---------------------------------|
 G =/(14)~~-------------------------|-14~~----------------------------|
 D ---------------------------14-16-|---------------------------14-16-|
 A ---------------------------------|---------------------------------|
 E ---------------------------------|---------------------------------|

 E ---------------------------------|---------------------------------------|
 B ---------------------------------|-pb(15)r14~----------------------------|
 G -14~~-----------16^(18)===-^(19)-|--------------16^wr-14-16----14--16p14-|
 D ---------------------------------|--------------------------16-----------|
 A ---------------------------------|---------------------------------------|
 E ---------------------------------|---------------------------------------|

 E ---------------------------------|---------------------------------|
 B -17~~--------------------17^(19)-|-(19)r17~~---------------17^(19)-|
 G ---------------------------------|---------------------------------|
 D ---------------------------------|---------------------------------|
 A ---------------------------------|---------------------------------|
 E ---------------------------------|---------------------------------|

 E -----------------17-------17^(19)|r17~~----------------------------------|
 B -(19)r17~~---17------------------|---------17^w-(19)r17-14---------------|
 G ---------------------------------|-------------------------16^wr-14-14-14|
 D ---------------------------------|---------------------------------------|
 A ---------------------------------|---------------------------------------|
 E ---------------------------------|---------------------------------------|

 E ----------------------------------------------|
 B ----------------------------------------------|
 G ----------------------------------------------|
 D -14-----14-----14\(12)-11-12/(14)-------------|
 A ----------------------------------12~---12-12-|
 E ----------------------------------------------|

 E ----------------------------------------------|
 B ----------------------------------------------|
 G ----------------------------------------------|
 D ---16^w-16^wr-14-16-16^(17)r16p14h16-14--14/16|
 A ----------------------------------------------|
 E ----------------------------------------------|

 E -----------------------------------|-------------------------------|
 B -------------------------17^(18)---|-(18)r17~~---------------------|
 G -14-16-16^w-16^wr-14-14------------|-------------14--14~~----------|
 D -----------------------------------|-------------------------------|
 A -----------------------------------|-------------------------------|
 E -----------------------------------|-------------------------------|

 E ---17-17---17-17---17-17---17-17---|-------------------------------|
 B -----------------------------------|-------------------------------|
 G /14------14------14------14--------|-------------------------------|
 D -----------------------------------|-------4-7-7-7p5==^(7)r5-------|
 A -----------------------------------|-----7-------------------------|
 E -----------------------------------|-------------------------------|

 E ---------------------------------|---------------------------------|
 B ---------------------------------|---------------------------------|
 G ----/9-7---7\5-5/6---------------|---------------------------------|
 D -------------------7-------------|---------------------------------|
 A ---------------------7-6-5-3-----|-------------------------3---3---|
 E ---------------------------------|-5-----0-3-4-5-3-4-5-3-5---------|
                                         pm-------------->  |

 E -----------15---------------------------------|
 B --15^(17)-----(17)r15---13-15^(17)-15-13------|
 G -----------------------------------------14---|
 D ----------------------------------------------|
 A ----------------------------------------------|
 E ----------------------------------------------|

 E ----------------------------------------------|
 B ------------16^s-----16^s-----17^wr^(19)------|
 G -/14-------------14-------14------------------|
 D -----16-14------------------------------------|
 A ----------------------------------------------|
 E ----------------------------------------------|

 E ---------------------------------|---------------------------------|
 B -17^w----17------15------14------|-15-14----15^17~-----------------|
 G ---------------------------------|-------14------------------------|
 D ---------------------------------|---------------------------------|
 A ---------------------------------|---------------------------------|
 E ---------------------------------|---------------------------------|
                                    
Intro with chorus and fade out

Another accomplishment from the Adrian

someone tab dear mr fantasy by big sugar or traffic either one is fine
ps if you dont like this tab then kiss my butt... it pleases me
Добавлено: 24.05.2012
Вам также может быть интересно:
Другие материалы по этой песне:

Страница создана 24.05.2012
http://primanota.ru/harlequin/thinking-of-you-chords.htm
Привет, Гость.
Предлагаем пройти революционный курс по гитаре.
Подарок от PrimaNota.Ru, забирай!