PrimaNota.ru - самый крупный в мире бесплатный архив песенных текстов, аккордов, табулатур и нот


Haricharan - Thuli Thuli Mazhaiyai-paiya - таба, видео

Регистрация Запомнить меня
Войти через:  Facebook Google Twitter Vk Yandex Mail.ru

Haricharan - Thuli Thuli Mazhaiyai-paiya - таба, видео

Печатать
Просмотров: 46
-------------------------------------------------------------------------------
                             SONG NAME thuli thuli mazhaiyai - Band Name yuvan Shankar raja
-------------------------------------------------------------------------------
Tabbed by:Eswar
E-mail:war7.es@gmail.com

Tuning:standard

e|----------------------8-----8-10-8-10-13-13--13--13--13v-15--15--13--13--|
B|-----10-8-10-11-10-11----11----------------------------------------------|
G|-------------------------------------------------------------------------|
D|-------------------------------------------------------------------------|
A|-------------------------------------------------------------------------|
E|-------------------------------------------------------------------------|

e|-----13-11-10-8-----------------------------------------------------------------------|
B|-----------------11-10-8--------------------------------------------------------------|
G|-------------------------------------------------------------------12-10-8------------|
D|------------------------------------------------12-10-8-----------------8-10-12-1310--|
A|--------------------------------------------------------12-10-8---------8-10----------|
E|---------------------------------------------------------------12-11-8-10-------------|

e|----------------------------------------------------------------------------------|
B|-----------3-1--------------------------------------------------------------------|
G|-------0-0-----3-2-0--------------------------------------------------------------|
D|----------------------3-----------------------------------------------------------|
A|----------------------------------------------------------------------------------|
E|----------------------------------------------------------------------------------|

e|--------------------1-1v3-1---------------------------------------------------------|
B|--------------1-3-4---------4-3-3-1-------------------------------------------------|
G|--------0-2-3-----------------------------------------------------------------------|
D|------------------------------------------------------------------------------------|
A|------------------------------------------------------------------------------------|
E|------------------------------------------------------------------------------------|

e|-------------------------------------------1------|
B|---------------1-1h3--3-3-1-3-3-1-3-3-1--3-3---1--|
G|-----0-0-0-2-3------------------------------------|
D|--------------------------------------------------|
A|--------------------------------------------------|
E|--------------------------------------------------|(x2)



************************************

| /   slide up
| \   slide down
| h   hammer-on
| p   pull-off
| ~   vibrato
| +   harmonic
| x   Mute note
| b   Bend
| pb  Pre-bend
| br  Bend release
| pbr Pre-bend release
| brb Bend release bend

************************************
Добавлено: 02.01.2016
Вам также может быть интересно:
Другие материалы по этой песне:
  • Аккорды и текст

Страница создана 02.01.2016
http://primanota.ru/haricharan/thuli-thuli-mazhaiyai-paiya-chords.htm
Привет, Гость.
Предлагаем пройти революционный курс по гитаре.
Подарок от PrimaNota.Ru, забирай!