PrimaNota.ru - самый крупный в мире бесплатный архив песенных текстов, аккордов, табулатур и нот


Harem Scarem - Hard To Love - аккорды и текст, видео

Регистрация Запомнить меня
Войти через:  Facebook Google Twitter Vk Yandex Mail.ru

Harem Scarem - Hard To Love - аккорды и текст, видео

Печатать
Просмотров: 242
Hard To Love
Harem Scarem
Song: Hard To Love
Artist: Harem Scarem
Album: Harem Scarem
Tabbed By: Todd LeBlanc

Standard Tuning
E A D G B E

{Intro}
  E5           C            C  B  A  G D
|-\12--12-10-7-10-12------------------------------|
|---------------------10-12-13-12-10-8-10s12-10---|
|-------------------------------------------------|
|-------------------------------------------------|
|-------------------------------------------------|
|-------------------------------------------------|
  E5           C            C  B  A  G D              C       D
|-\12--12-10-7-15-12-------------------------------------------------|
|---------------------10-12-13-12-10-8-10b12b10--8-10-8--8-8--7-7----|
|--------------------------------------------------------------------|
|--------------------------------------------------------------------|
|--------------------------------------------------------------------|
|--------------------------------------------------------------------|
                   E5                                    C        D
You come on like a sweet child here drive me wild when I want you
                E5                                            C       D  B
You giving me a rough time then you change your mind then you want me
    E5                           C    D
You come so close, but you never stay
    E5                               C    D
You take my heart, and then you walk away
G                             D               C
You're hard to love, but it's hard to let you go
G                        D                    C
I need you now, but I'm afraid of letting you know
G                      D          C        A
It's hard to love, and never understand
       D                        C
How it slips right through your hands
        E5                                        C       D
I wanna say you're mine but acting like you don't know me
              E5                                          C       D  B
All I need is one night just to make it right when you're lonely
E5                      C       D
I got to know if we can make it last
G                             D               C
You're hard to love, but it's hard to let you go
G                        D                    C
I need you now, but I'm afraid of letting you know
G                      D          C        A
It's hard to love, and never understand
       D                        C(let ring)   E5  C  D(let ring)
How it slips right through your hands

Can't pretend I don't want you to know
                                  A  B
Every touch leaves your mark on me

Little things seem to haunt me now
  C                      D              E5
I can't believe you've become a part of me

{Bridge}
Intro Riff then adlib over A-D-E5-D-C-A-D-A-B-C-D-G(let ring)

{Chorus till fade out}

That's pretty much it. Listen to the song for the timing of the chords 
during the solo. Any corrections/questions send
'em my way at teardropcarnival@hotmail.com
Добавлено: 09.07.2012
Другие материалы по этой песне:
  • Аккорды и текст

Страница создана 08.04.2012
http://primanota.ru/harem-scarem/hard-to-love-chords.htm
Привет, Гость.
Предлагаем пройти революционный курс по гитаре.
Подарок от PrimaNota.Ru, забирай!