PrimaNota.ru - самый крупный в мире бесплатный архив песенных текстов, аккордов, табулатур и нот


Hardkandy - Loose Ends - таба, видео

Регистрация Запомнить меня
Войти через:  Facebook Google Twitter Vk Yandex Mail.ru

Hardkandy - Loose Ends - таба, видео

Печатать
Просмотров: 48
-------------------------------------------------------------------------------
                             "Loose Ends" - Hardkandy
-------------------------------------------------------------------------------
Tabbed by: Laszlo Schoonheid
E-mail: lschoonheid@gmail.com

Tuning: Standard


I could not find a decent tab for this tune so I did it myself.
This is the song tab I ever tabbed, so please be gentle. 
Any suggestions are welcome.


This part repeats itself throughout the whole song with no variations:

e|--------------------|-----------------3-|
B|---1-3p-1-----3---3-|---1-3p1-----0---0-|
G|---2-2----2---2---2-|---0-0---0--(0)----|
D|------------0---0---|-------------------|
A|-0------------------|-3-------------2---|
E|--------------------|-----------0-------|


Chords (optional): Am - D - C - Em

The chords are best played with the low E string muted for Am, D and C. You can play it open for Em.




************************************

| p   pull-off

************************************
Добавлено: 24.06.2016
Другие материалы по этой песне:
  • Аккорды и текст

Страница создана 24.06.2016
http://primanota.ru/hardkandy/loose-ends-chords.htm
Привет, Гость.
Предлагаем пройти революционный курс по гитаре.
Подарок от PrimaNota.Ru, забирай!