PrimaNota.ru - самый крупный в мире бесплатный архив песенных текстов, аккордов, табулатур и нот


Hardi Hõlpus - Type Of An Animal - бас-таба, видео

Регистрация Запомнить меня
Войти через:  Facebook Google Twitter Vk Yandex Mail.ru

Hardi Hõlpus - Type Of An Animal - бас-таба, видео

Печатать
Просмотров: 71
Уроки эстрадного вокала в Санкт-Петербурге
Standard tuning: E,A,D,G.

Chorus & Verse

G|-----------------------------------------------------------|
D|-----------------------------------------------------------|
A|-------------3--3-3-3-3-3-2----------------3--3-3-3-3-3-5--|
E|--0--0--3-3---------------------0--0--3-3------------------|

G|-----------------------------------------------------------|
D|-----------------------------------------------------------|
A|-------------3--3-3-3-3-3-3-0-2--2--2--2--1-1-1-0--0-0-0---|
E|--0--0--3-3------------------------------------------------|


Interlude

G|---------------------------------------------------------|
D|---2-2-2------3--3-0--0----------------------------------|
A|--0-----3-3-3--------------------------------------------|
E|---------------------------------------------------------|
Добавлено: 05.12.2015
Другие материалы по этой песне:
  • Аккорды и текст

Страница создана 05.12.2015
http://primanota.ru/hardi-holpus/type-of-an-animal-chords.htm
Привет, Гость.
Предлагаем пройти революционный курс по гитаре.
Подарок от PrimaNota.Ru, забирай!