PrimaNota.ru - самый крупный в мире бесплатный архив песенных текстов, аккордов, табулатур и нот


Hardbone - This Is Rock N Roll - таба, видео

Регистрация Запомнить меня
Войти через:  Facebook Google Twitter Vk Yandex Mail.ru

Hardbone - This Is Rock N Roll - таба, видео

Печатать
Просмотров: 152
Уроки эстрадного вокала в Санкт-Петербурге
-------------------------------------------------------------------------------
                         This is Rock N Roll - Hardbone
-------------------------------------------------------------------------------
Tabbed by: Cory
E-mail:

Tuning: Standard


Intro (0:00)

e|------------------------------------------------------------------|
B|------------------------------------------------------------------|
G|------2-2-----2------2-2-----2------2-2-----2------2-2-----2------|
D|------2-2-----2------2-2-----2------2-2-----2------2-2-----2------|
A|------0-0-0---0------0-0-0---0------0-0-0---0------0-0-0---0------|
E|------------3--------------3--------------3--------------3--------|
                                               (first solo starts)
                                uhh uhh


e|----------------------------------------------|
B|----------------------------------------------|
G|-------------2-2---2-------------2-2---2------|
D|-------------2-2---2-------------2-2---2------|
A|------0-3b-0-0-0---0------0-3b-0-0-0---0------|
E|-----------------3-------------------3--------|



(0:20)
                                 x3
e|-----------------------3---------|---------------------------3------------|
B|-----------------------3---3-----|---------------------------3-----3------|
G|-------------2-2---2-------2-----|---------------------------------2------|
D|-------------2-2---2-------0-----|-------------2-2-2-2-2-2---------0------|
A|------0-3b-0-0-0---0-0---0-------|------0-3b-0-0-0-0-0-0-0-0-----0--------|
E|-----------------3---------------|----------------------------------------|
                                                 x x x x x x x     x
                                                                        You want a...


************************************

| h   hammer-on
| p   pull-off
| x   Mute note
| b   Bend

************************************
Добавлено: 17.03.2016
Другие материалы по этой песне:
  • Аккорды и текст

Страница создана 17.03.2016
http://primanota.ru/hardbone/this-is-rock-n-roll-chords.htm
Привет, Гость.
Предлагаем пройти революционный курс по гитаре.
Подарок от PrimaNota.Ru, забирай!