PrimaNota.ru - самый крупный в мире бесплатный архив песенных текстов, аккордов, табулатур и нот


Hard-ons - Get Wet - таба, видео

Регистрация Запомнить меня
Войти через:  Facebook Google Twitter Vk Yandex Mail.ru

Hard-ons - Get Wet - таба, видео

Печатать
Просмотров: 25
-------------------------------------------------------------------------------
                             GET WET - Hard-Ons
-------------------------------------------------------------------------------
Tabbed by: JMP
E-mail:

Tuning:EADGBE

INTRO play this 4X
e|---------------------------------------------------------------------------|
B|---------------------------------------------------------------------------|
G|--------7-7-7-6-6-----------7-7-7-6-6--------------------------------------|
D|------------------5-7-7---7-----------5------------------------------------|
A|7-7---7-------------5-5---5------------------------------------------------|
E|5-5---5--------------------------------------------------------------------|

then this

e|---------------------------------------------------------------------------|
B|---------------------------------------------------------------------------|
G|---------------------------------------------------------------------------|
D|9-9--99-12-12-11-9-7-777777-9-999999-12-12-11-9-7-7777777777777------------|
A|7-7--77-10-10-9--7-5-555555-7-777777-10-10-9--7-5-5555555555555------------|
E|---------------------------------------------------------------------------|

VERSE "I just wanted to say..."
e|---------------------------------------------------------------------------|
B|---------------------------------------------------------------------------|
G|---------------------------------------------------------------------------|
D|----------------7777777777777777----------------7777777777777777-----------|
A|7777777777777777555555555555555577777777777777775555555555555555-----------|
E|5555555555555555----------------5555555555555555---------------------------|

"Candy, why're you so down..."

e|---------------------------------------------------------------------------|
B|---------------------------------------------------------------------------|
G|---------------------------------------------------------------------------|
D|9-999999-12-12-11-9-7-7777777777777----------------------------------------|
A|7-777777-10-10-9--7-5-5555555555555----------------------------------------|
E|---------------------------------------------------------------------------|

INTERLUDE play this 2X
e|---------------------------------------------------------------------------|
B|---------------------------------------------------------------------------|
G|--------7-7-7-6-6-----------7-7-7-6-6--------------------------------------|
D|------------------5-7-7---7-----------5------------------------------------|
A|7-7---7-------------5-5---5------------------------------------------------|
E|5-5---5--------------------------------------------------------------------|

CHORUS "Candy, you're still growing up..."
e|-----------------------------------|---------------------------------------|
B|-----------------------------------|---------------------------------------|
G|-----------------------------------|---------------------------------------|
D|55555555--------101010-9-7-5-555555|55555555--------1010-9-7-5-------------|
A|33333333555555558-8-8--7-5-3-333333|33333333555555558-8--7-5-3-------------|
E|--------33333333-------------------|--------33333333-----------------------|

e|-------------------------|-------------------------------------------------|
B|-------------------------|-------------------------------------------------|
G|-------------------------|-------------------------------------------------|
D|55555555--------10-9-7-5-|555555-------------------------------------------|
A|33333333555555558--7-5-3-|333333555555557777777777777777-------------------|
E|--------33333333---------|------333333335555555555555555-------------------|

OUTRO play this 3X
e|---------------------------------------------------------------------------|
B|---------------------------------------------------------------------------|
G|--------7-7-7-6-6-----------7-7-7-6-6--------------------------------------|
D|------------------5-7-7---7-----------5------------------------------------|
A|7-7---7-------------5-5---5------------------------------------------------|
E|5-5---5--------------------------------------------------------------------|

then this                                  let ring
e|---------------------------------------------------------------------------|
B|---------------------------------------------------------------------------|
G|--------7-7-7-6-6-----------7-7-7-6--6-6-----------------------------------|
D|------------------5-7-7---7--------------5---------------------------------|
A|7-7---7-------------5-5---5------------------------------------------------|
E|5-5---5--------------------------------------------------------------------|

Lyrics: I just wanted to say
        I thought you might be coming my way
        Candy, why're you so down?
        I wanna cheer you up
        Oh Candy, why?

        I've never seen you like this
        I'm hoping you won't pass, at least with a smile
        Candy please stop crying
        you're nice the way you smile
        Oh Candy

        CHORUS
        Candy, you're still growing up, so you've a lot to learn
        to the looks who've got that pretty smiles, boys will always turn
        Boys will always turn back to you
        Boys will always turn back (turn back)

        Why are throwing it away like this?
        Can't give up, what you're about to miss
        Candy just sit down
        get off, off the ground
        Candy, why?

        You're going out like all the rest
        so here's my final last goodbye
        so please open wide
        I'd like to be inside
        for the last time

        CHORUS
        Candy, you're still growing up, so you've a lot to learn
        to the looks who've got that pretty smiles, boys will always turn
        Boys will always turn back to you
        Boys will always turn back (turn back)

SONG ORDER:
1. INTRO
2. VERSE
3. INTERLUDE
4. VERSE
5. CHORUS
6. VERSE
7. INTERLUDE
8. VERSE
9. CHORUS
10.OUTRO

I think this tab is correct but please improve it if i'm wrong. Not sure about the lyrics though (Aussie slang
words in there, maybe?) 
Добавлено: 12.06.2016
Другие материалы по этой песне:
  • Аккорды и текст

Страница создана 12.06.2016
http://primanota.ru/hard-ons/get-wet-chords.htm
Привет, Гость.
Предлагаем пройти революционный курс по гитаре.
Подарок от PrimaNota.Ru, забирай!