PrimaNota.ru - самый крупный в мире бесплатный архив песенных текстов, аккордов, табулатур и нот


Hard N Phirm - Camping Song - таба, видео

Регистрация Запомнить меня
Войти через:  Facebook Google Twitter Vk Yandex Mail.ru

Hard N Phirm - Camping Song - таба, видео

Печатать
Просмотров: 120
( www.hardnphirm.com )
-------------------------------------------------------------------------------
                    THE CAMPING SONG - Hard'n Phirm
-------------------------------------------------------------------------------
Tabbed by: Erik Koene
Email: erik.nhmgn@gmail.com


Tuning: standard EADGBe

INTRO
    Esus4/D                  Bb   F
e|----------0-----0-2---------6---5----|
B|------0-------3-----3-------6---6----|
G|----2---2---2---------2-----7---5----|
D|--0-------------------------8---7----|
A|-------------------------------------|
E|-------------------------------------|

SONG
    G
e|------------3------------------3------------|
B|------------3------------------3------------|
G|------------4------------------4------------|
D|-------5----------5------------5---5--------|
A|---5------------------------5---------------|
E|--------------------------------------------|
"The sun goes down, and with it goes the light,

    D#                    G                         D#
e|------3------------3--------3--------------3-------------------3-|
B|------4------------4--------3--------------3-------------------4-|
G|------3------------3--------4--------------4-------------------3-|
D|----5----5---------5------5-----5----------5------5----5---------|
A|--6-----------6---------5---------------5-----------6------------|
E|-----------------------------------------------------------------|
           so I fire a ???lantern  to put my jacket internals(?) on

     B    F       G
e|---6----5-------3----------|
B|---6----6-------3----------|
G|---7----5-------4----------|
D|---8----7-------5----------|
A|---8----8-------5----------|
E|---6----5-------3----------|
That keep me from freezing"

CONTINUE SAME PATERN. It's a bit much too count and then write. It's easy when you
the track a few times.


      G              C
e|----3--------------3---------------------------|
B|----3--------------5---------------------------|
G|----4--------------5---------------------------|
D|----5--------------5---------------------------|
A|----5--------------3---------------------------|
E|----3--------------x---------------------------|
"In a minute I'll be warm inside my sleeping bag

      D#                                   D
e|----3-----------------------------------2------------|
B|----4-----------------------------------3------------|
G|----3-----------------------------------2------------|
D|----5-----------------------------------4------------|
A|----6-----------------------------------5------------|
E|----3-----------------------------------2------------|
      There I'll hide untill the light of dawn has come

      F                C        F          C
e|----5----------------3--------5----------3-|
B|----6----------------5--------6----------5-|
G|----5----------------5--------5----------5-|
D|----7----------------5--------7----------5-|
A|----8----------------3--------8----------3-|
E|----5----------------3--------5----------3-|
      And here there's no TV no ????machine,

   F          C               F          C
e|-5----------3---------------5-----3----------|
B|-6----------5---------------6-----5----------|
G|-5----------5---------------5-----5----------|
D|-7----------5---------------7-----5----------|
A|-8----------3---------------8-----3----------|
E|-5----------3---------------5-----3----------|
   No sitting too close to computer screens, no

G           C                 G          C
 I've got a flashlight and by that I can read,

    G                             F      C
And hear that running water, well that's all that I need

      C                C           G
Yeah, everyday is like camping for me
                      G7
since they shut of my power!"
Добавлено: 19.07.2012
Вам также может быть интересно:
Другие материалы по этой песне:
  • Аккорды и текст

Страница создана 19.07.2012
http://primanota.ru/hard-n-phirm/camping-song-chords.htm
Привет, Гость.
Предлагаем пройти революционный курс по гитаре.
Подарок от PrimaNota.Ru, забирай!