PrimaNota.ru - самый крупный в мире бесплатный архив песенных текстов, аккордов, табулатур и нот


Hard Creation - I Will Have That Power - таба, видео

Регистрация Запомнить меня
Войти через:  Facebook Google Twitter Vk Yandex Mail.ru

Hard Creation - I Will Have That Power - таба, видео

Печатать
Просмотров: 85
e|---------------------------------------------------------------------------|
B|---------------------------------------------------------------------------|
G|------9--7--5-----------------5--------------------------------------------|
D|---7-----------9--7--5--7--9-----9--7--------------------------------------|
A|---------------------------------------7-----------------------------------|
E|---------------------------------------------------------------------------|


e|---------------------------------------------------------------------------|
B|---------------------------------------------------------------------------|
G|---------------5--7--9--10--9--7--9----------------------------------------|
D|------9--7--9--------------------------------------------------------------|
A|---7-----------------------------------------------------------------------|
E|---------------------------------------------------------------------------|

http://www.youtube.com/watch?v=YWr1mGNGZ_E
Добавлено: 07.09.2013
Другие материалы по этой песне:
  • Аккорды и текст

Страница создана 07.09.2013
http://primanota.ru/hard-creation/i-will-have-that-power-chords.htm
Привет, Гость.
Предлагаем пройти революционный курс по гитаре.
Подарок от PrimaNota.Ru, забирай!