PrimaNota.ru - самый крупный в мире бесплатный архив песенных текстов, аккордов, табулатур и нот


Harbour - What Happened To Us - таба, видео

Регистрация Запомнить меня
Войти через:  Facebook Google Twitter Vk Yandex Mail.ru

Harbour - What Happened To Us - таба, видео

Печатать
Просмотров: 19
Новый альбом группы 'Черный Кузнец' по культовому сериалу 'Сверхъестественное'!
[Intro]

e|-------------------------------------------------------------------|
B|-------------------------------------------------------------------|
G|----4-------4------4------4---------4------4------4------4---------|
D|------5-------5------5------5---------5------5------5------5-------| x6
A|--------------------------------0h3------3------3------3-----------|
E|--3-------3------3------3------------------------------------------|

(goes through the first verse)


[Break]

e|--7-----------5--------------3----------|
B|--8-----------7--------------5----------|
G|--9-----------7------7-------5----------|
D|--9-----------7------7-------5----------|
A|--7-----------5--------------3----------|
E|----------------------------------------|


[Chorus]

         x7            x7             x7               x5
e||--------||---x-------||----x--------||---xxxx--------||
B||--------||---x-------||----x--------||---xxxx--------||
G||---9----||---x---7---||----x---5----||---xxxx---5----||
D||---9----||---x---7---||----x---5----||---xxxx---5----||  
A||---7----||---x---5---||----x---3----||---xxxx---3----||
E||---7----||---x---5---||----x---3----||---xxxx---3----||

PLAY THIS 2 TIMES, THEN HIT EACH CHORD TO THE BEAT (8 times for each)


[Break]

e|-------------------------------------------------------------------|
B|-------------------------------------------------------------------|
G|-----------9--------------5----------------0------1------0---------|  PLAY THIS 2 TIMES, AT THE END OF THE
D|-------7-----9-------5------5-------2--3-----0------0------0-------|   SECOND TIME, STRUM AN OPEN C CHORD
A|---7h9---9-----9---7---7------5---3------------2------2------2-----|
E|-------------------------------------------------------------------|


[Bridge]

e|--7-7-7-7-7-7--5-5-5-5-5-5--3-3-3-3-3-3-3-3-3-3-3-3-3----|
B|--8-8-8-8-8-8--7-7-7-7-7-7--5-5-5-5-5-5-5-5-5-5-5-5-5----|
G|--9-9-9-9-9-9--7-7-7-7-7-7--5-5-5-5-5-5-5-5-5-5-5-5-5----|
D|--9-9-9-9-9-9--7-7-7-7-7-7--5-5-5-5-5-5-5-5-5-5-5-5-5----|
A|--7-7-7-7-7-7--5-5-5-5-5-5--3-3-3-3-3-3-3-3-3-3-3-3-3----|  x6
E|--7-7-7-7-7-7--5-5-5-5-5-5--3-3-3-3-3-3-3-3-3-3-3-3-3----|


[Bridge 2]

e|-----------------------|
B|-----------------------|
G|-----------------------|     PLAY THIS
D|---7-------5--------3--|     SOFTLY
A|---7-------5---5----3--| x2
E|-----------------------|

e|-------------------------------------------------------------------|
B|-------------------------------------------------------------------|  x2
G|-----------9--------------5----------------0------1------0---------|    WITH AN OPEN
D|-------7-----9-------5------5-------2--3-----0------0------0-------|    C CHORD AT THE END
A|---7h9---9-----9---7---7------5---3------------2------2------2-----|
E|-------------------------------------------------------------------|


[Outro]

e|----0-----0-0---0-0---0-----0-0---------0-----0-0---0-0---0-----0-0---0-0----|  
B|----0-----0-0---0-0---0-----0-0---------0-----0-0---0-0---0-----0-0---0-0----|
G|----0-----0-0---0-0---0-----0-0---------0-----0-0---0-0---0-----0-0---0-0----| PLAY THIS ALONE TWICE
D|----2-----2-2---2-2---2-----2-2---------2-----2-2---2-2---2-----2-2---2-2----| AND CONTINUE UNTIL END
A|----2-----2-2---2-2---2-----2-2---------3-----3-3---3-3---3-----3-3---3-3----|
E|--0-0---0-0-0-0-0-0-0-0---0-0-0-0-3-2-0-0---0-0-0-0-0-0-0-0---0-0-0-0-0-0----|


e|------------------------------|
B|-------0----------------------|
G|------------------------------|     PLAY THIS OVER THE PREVIOUS CHORDS AFTER THEY RUN THROUGH TWICE
D|-----2---2-----2-2-----2-2----|    AND ONLY PLAY IT FOUR TIMES UNTIL NEXT RIFF, TWICE OVER EACH CHORD
A|------------------------------|
E|---0--------0-------0---------|


[Outro Solo]

e|------------------------------------|
B|------------------------------------|
G|------------------------------------|
D|----2-2--0-0--5-5---5-5--0-2-0-2-0--|
A|------------------------------------|
E|--0---------------------------------|

e|---------------------------------------------------------------------------------------|
B|---------------------------------------------------------------------------------------|
G|---------------------------------------------------------------------------------------|
D|---2-2--0-0--5-5---5-5--2-0--5-7-7s9-7-5-2--2-2--0-0--5-5-2h5-2s7-5-2-0-2-5-7-7-7s9----|
A|---------------------------------------------------------------------------------------|
E|0--------------------------------------------------------------------------------------|



************************************

| x  Dead note
| h  Hammer-on
| s  Slide

************************************
Добавлено: 24.04.2018
Другие материалы по этой песне:
  • Аккорды и текст

Страница создана 24.04.2018
http://primanota.ru/harbour/what-happened-to-us-chords.htm
Привет, Гость.
Предлагаем пройти революционный курс по гитаре.
Подарок от PrimaNota.Ru, забирай!