PrimaNota.ru - самый крупный в мире бесплатный архив песенных текстов, аккордов, табулатур и нот


Happysad - Tak Mija Czas - таба, видео

Регистрация Запомнить меня
Войти через:  Facebook Google Twitter Vk Yandex Mail.ru

Happysad - Tak Mija Czas - таба, видео

Печатать
Просмотров: 121
h                A fis h A
Tamten znów...
h                A fis h A
Tamta znów...
h                A fis h A
Znowu coś...
h                A
Znowu oszukali...
fis            h A h
Znowu się...

      h             A
      Tak właśnie...
      fis          h A h
      Tak właśnie...


intro - wahwah!

e|-----------------------------------------------------------------------------------|
H|------------------------19---------------------------------------------------------|
G|--18h19-----18h19-18-19----16-18-----16h18-14---14----1414h16--16/19-18-18/21-19---|
D|---------------------------------------------------16------------------------------|
A|-----------------------------------------------------------------------------------|
E|-----------------------------------------------------------------------------------|

e|-----------------------------------------------------------------------------------|
H|------------------------19p17------------------------------------------------------|
G|--18h19-----18h19-18-19-------18-----16h18-14---14----1414h16--16/19-18-18/21-19---|
D|---------------------------------------------------16------------------------------|
A|-----------------------------------------------------------------------------------|
E|-----------------------------------------------------------------------------------|


chorus:

e|--------------------------------------------------------|
H|--------------------------------------------------------|
G|--------------------------------------------------------|
D|--/12-11-9---12-11-9---12-9-12-11---7-------------------|
A|--------------------------------------------------------|
E|--------------------------------------------------------|

e|--------------------------------------------------------|
H|--------------------------------------------------------|
G|--------------------------------------------------------|
D|--/11--9-7---11--9-7---11-7-12-11---9-------------------|
A|--------------------------------------------------------|
E|--------------------------------------------------------|


after chorus:

e|--------------------------------------------------------|
H|--------------------------------------------------------|
G|---9/11-------------------------------------------------|
D|----------12--11--12--11--12---11---/12-11-9-12---------|
A|--------------------------------------------------------|
E|--------------------------------------------------------|

e|--------------------------------------------------------|
H|--------------------------------------------------------|
G|---9/11-------------------------------------------------|
D|----------12--11--12--11--12-------14-12-11-12-11p12----|
A|------------------------------12------------------------|
E|--------------------------------------------------------|


last chorus:

e|--------------------------------------------------------|
H|--------------------------------------------------------|
G|--------------------------------------------------------|
D|----------7-----4-----9---7-----------------------------|
A|----------7-----4-----9---7-----------------------------|
E|----------5-----2-----7---5-----------------------------|

e|--------------------------------------------------------|
H|--------------------------------------------------------|
G|--------------------------------------------------------|
D|----9-----7-----4-----9---7-----------------------------|
A|----9-----7-----4-----9---7---etc-----------------------|
E|----7-----5-----2-----7---5-----------------------------|
Добавлено: 08.03.2012
Другие материалы по этой песне:
  • Аккорды и текст

Страница создана 08.03.2012
http://primanota.ru/happysad/tak-mija-czas-chords.htm
Привет, Гость.
Предлагаем пройти революционный курс по гитаре.
Подарок от PrimaNota.Ru, забирай!