PrimaNota.ru - самый крупный в мире бесплатный архив песенных текстов, аккордов, табулатур и нот


Happysad - Jeszcze Jeszcze - таба, видео

Регистрация Запомнить меня
Войти через:  Facebook Google Twitter Vk Yandex Mail.ru

Happysad - Jeszcze Jeszcze - таба, видео

Печатать
Просмотров: 187
Happysad - Jeszcze, jeszcze

zwrotka:

D    f#                h
Dzień który zaczął się marnie
  e      A      D
I marnie skończy się
f#                h
Może strułem się jabłkiem
e      A
Nie wyspałem 


ref.
       D               A
A może sama powiesz mi
                       D
Jak mam powiedzieć to tobie
            A                  D
Że już nie kocham cię nie chce
         A                 D
Że kiedy patrzę na to jak jest
A                       f#
Już nie przechodzą mnie dreszcze
  h                f#
Już nie brakuje mi powietrza
  h
Już nie wołam
  G                 h        e   A
jeszcze, jeszcze, jeszcze


Dzień który zaczął się marnie
I marnie skończy się
Może strułem się jabłkiem
Nie wyspałem
Może siedzi we mnie wczorajsze
A jeśli nie
Może ktoś zapewni
Jest dobrze jest dobrze jest

A może sama powiesz mi
Jak mam powiedzieć to tobie
Że już nie kocham cię nie chce
Że kiedy patrzę na to jak jest
Już nie przechodzą mnie dreszcze
Już nie brakuje mi powietrza
Już nie wołam jeszcze, jeszcze, jeszcze

Reszta chyba jest w porządku
Jak kiedyś
Kiedy pisaliśmy krwią
Że od końców naszych stóp
Po końce naszych dłoni
Do końca świata aż po grób
Że jakby coś - to nic

I może sama powiesz mi... 

*** GITARA 2 *****************************************************************

...jest dobrze jest...
e|-2-2-2--2-2-3-2--2-2-2-2/5-5-5-3-2-2-2-0-2-3-0-

...i może sama...

e|------12-------3-------12-------3-------------------------|
B|--3--------3-----7-3--------3-----7-----------------------| 
G|--------------------------------------4--4-5-2--4--4-5-2--| 
D|----------------------------------------------------------|  
A|----------------------------------------------------------|  
E|----------------------------------------------------------|  

SOLO:
e|-----5-----------------------------------------| 
B|-------8-7-7s3s---5--5-3-2-3--77777-5-3-2-3-2--| 
G|-6-7-----------2-------------------------------| 
D|-----------------------------------------------| 
A|-----------------------------------------------| 
E|-----------------------------------------------| 


...reszta chyba jest w porządku...
 [chords]

...- to nic...
e|-2-2-2--2-2-3-2--2-2-2-2/5-5-5-3-2-2-2-0-2-3-0-

...i może sama...

e|------12-------3-------12-------3-------------------------|
B|--3--------3-----7-3--------3-----7-----------------------| 
G|--------------------------------------4--4-5-2--4--4-5-2--| 
D|----------------------------------------------------------|  
A|----------------------------------------------------------|  
E|----------------------------------------------------------|  

SOLO:
e|-----5-----------------------------------------| 
B|-------8-7-7s3s---5--5-3-2-3--77777-5-3-2-3-2--| 
G|-6-7-----------2-------------------------------| 
D|-----------------------------------------------| 
A|-----------------------------------------------| 
E|-----------------------------------------------| 

...i może sama...
 [chords]

...już nie przechodzą mnie dreszcze...

G|--4--4-5-2--4--4-5-2--| 


SOLO2:

e|-----5-----5-5-----------|
B|-7-8---7-8-----8-7-7h8-5-|
G|-------------------------|
D|-------------------------|
A|-------------------------|
E|-------------------------| x2

e|-s12-10-9-12-10-9-9-9-7-5--------|----5----5-5/7-5---------5/7--------|
B|--------------------------8--7-5-|-7-8--7-8--------8-7-8-7-----8-7----|
G|---------------------------------|--------------------------------7---|
D|---------------------------------|------------------------------------|
A|---------------------------------|------------------------------------|
E|---------------------------------|------------------------------------|

_______
By Buc® na podstawie chords.pl
buc@w.pl
Rozpowszechnianie bez zgody twórcy surowo wskazane :)
Unauthorised copying, reproduction, hiring, lending, public performance and broadcasting suggested :)
Добавлено: 07.06.2012
Другие материалы по этой песне:
  • Аккорды и текст

Страница создана 07.06.2012
http://primanota.ru/happysad/jeszcze-jeszcze-chords.htm
Привет, Гость.
Предлагаем пройти революционный курс по гитаре.
Подарок от PrimaNota.Ru, забирай!