PrimaNota.ru - самый крупный в мире бесплатный архив песенных текстов, аккордов, табулатур и нот


Happysad - Dluga Droga W Dol - таба, видео

Регистрация Запомнить меня
Войти через:  Facebook Google Twitter Vk Yandex Mail.ru

Happysad - Dluga Droga W Dol - таба, видео

Печатать
Просмотров: 115
Part 1

|------------------------------------------------|
|--------------------------10---10---------------|
|7-9-10---9-7-9-10-12--10-9--9----9-10---12/10-9-|
|-----------------------------10-----------------|
|------------------------------------------------|
|------------------------------------------------|

Part 2

|---------------|
|---------------|
|7~---------7~--|
|---8~---10~----|
|---------------|
|---------------|

Part 3

|-------------|
|-------------|
|-------------|
|7---7------7-|
|-------7-----|
|-------------|

Part 4

|---------------------------------------|
|----10--8--------10--8-------10--8-----|
|7--------10--7--------10-9--------10-7-|
|---------------------------------------|
|---------------------------------------|
|---------------------------------------|

Part 5

|---------------------------------------------------------------|
|---------------------------------------------------------------|
|---------------------------------------------------------------|
|7-7-7-7--5-5/7--7-7-7--7-5-5/7--5-5-5-5--3-3/5--7-7-7-7--5-5/7-|
|7-7-7-7--5-5/7--7-7-7--7-5-5/7--5-5-5-5--3-3/5--7-7-7-7--5-5/7-|
|5-5-5-5--3-3/5--5-5-5--5-3-3/5--3-3-3-3--1-1/3--5-5-5-5--3-3/5-|

Part 6

|10-12-13--12-10-12-13-15--13-12-17--------17------------------|
|----------------------------------17--------17----------------|
|------------------------------------17--------17-18--20/18-17-|
|--------------------------------------------------------------|
|--------------------------------------------------------------|
|--------------------------------------------------------------|

Part 7

|10-12-13--12-10-12-13-15--13-12-17-17--17-17--18-18--18-18--17-|
|---------------------------------------------------------------|
|---------------------------------------------------------------|
|---------------------------------------------------------------|
|---------------------------------------------------------------|
|---------------------------------------------------------------|

How to play
:

Part 1 x 2

Part 2
Part 1
Part 2
Part 1
Part 2

Part 3 x 2

Part 4

Part 5 x 4

Part 6
Part 7
Добавлено: 31.07.2012
Другие материалы по этой песне:

Страница создана 01.03.2012
http://primanota.ru/happysad/dluga-droga-w-dol-chords.htm
Привет, Гость.
Предлагаем пройти революционный курс по гитаре.
Подарок от PrimaNota.Ru, забирай!