PrimaNota.ru - самый крупный в мире бесплатный архив песенных текстов, аккордов, табулатур и нот


Hanson - Thinking Bout Something - таба, видео

Регистрация Запомнить меня
Войти через:  Facebook Google Twitter Vk Yandex Mail.ru

Hanson - Thinking Bout Something - таба, видео

Печатать
Просмотров: 76
Thinking ‘bout something – Hanson
Tabbed by Wardword

Intro (played on piano but here are loose tabs)
e -------------------------------------------------------------------------|
B -10s12--10---------------------------------------------------------------|
G -----------12-9-/12-----9---------------9----------------------------9---|
D --------------------------12-9-12----12---12-----9-11-12-9-12-9-12-9-----|
A -------------------------------------------------------------------------|
E -------------------------------------------------------------------------|

e -------------------------------------------------------------------------|
B -------------------------------------------------------------------------|
G 9-9-----9----------------------------------9-----------------------------|
D -----12---12-9-12---9-10-12-9-12-9-12-9-12-------------------------------|
A -------------------------------------------------------------------------|
E -------------------------------------------------------------------------|

Chords are barre E,D&A. On the fifth strum there's a little flourish tabbed below.
    E			      	D			      A
e --7---7---7---7---7--------5---5---5---5---5--------5---5---5---7---5---|
B --9---9---9---10--9--------7---7---7---8---7--------5---5---5---7---5---|
G --9---9---9---9---9--------7---7---7---7---7--------6---6---6---7---6---|
D --9---9---9---9---9--------7---7---7---7---7--------7---7---7---9---7---|
A --7---7---7---7---7--------5---5---5---5---5--------7---7---7---9---7---|
E --7---7---7---7---7--------5---5---5---5---5--------5---5---5---7---5---|

E
Well I gave you love you know it
D
So when did you outgrow it
A
Inside that you would find another man

E
You've been out there shaken
D
'til the bulls are chasin'
A
When you get home you think I'll be the bigger man

Hey
A
I've been thinkin' bout somethin'
A				       E
I've been thinkin' bout somethin' other than you

E
I know your reputation
A
Cause you set my heart racing
D
You think that I would always be the fool

E				      D
Well I've run out of patience for this key situation
     A					E
You won't find me crying when we're through

A
I've been thinkin' bout somethin'
A				       E
I've been thinkin' bout somethin' other than you

It's sad to say but baby everyday that
A
I've been thinkin' bout somethin'
A				       E
I've been thinkin' bout somethin' other than you

It's sad to say

Instrumental (trumpets etc)
e -------------------------------------------------------10-10----10-12----|
B -12----12-12-10-10---10-10---------------------------12-------12---------|
G ---------------------------12-12----9-12-9-12-9--------------------------|
D -------------------------------------------------------------------------|
A -------------------------------------------------------------------------|
E -------------------------------------------------------------------------|

E
You're not too proud too bad
D
I can give you some respect
     A
But the tune you hum is never gonna change

E
You didn't have to do what you did
D
Or think you would end it like this
A
Cause the love I've got is better than what you gave

E
Well I've gotta draw some lines
D
We were bullied arms to mine
A
Listen up to what I say

A
I've been thinkin' bout somethin'
A				       E
I've been thinkin' bout somethin' other than you

It's sad to say but baby everyday that
A
I've been thinkin' bout somethin'
A				       E
I've been thinkin' bout somethin' other than you

Hey, hey

C#m 			  B
I've had enough of your tainted love
		 E
You give me everyday
	   C#m
I tried to hear it
        B			     A
A few lonely nights when I duck and plead

c'mon c'mon

I'm not gonna make that same mistake

Solo
e -------------------------------------------------------------------------|
B -12-10-12b-10----10--------------------------------10-10b-10-------------|
G --------------12----12-9-------------------9----9-------------12p11-9----|
D --------------------------12-12b-12-9-9-12---12-----------------------12-|
A -------------------------------------------------------------------------|
E -------------------------------------------------------------------------|

e -------------------------------------------------------------------------|
B -------------------------------------------------------------------------|
G ---------9---------------------------------------------------------------|
D 12b-12-9-----------------------------------------------------------------|
A -------------------------------------------------------------------------|
E -------------------------------------------------------------------------|

Piano solo but here are tabs

e 12---12---10-12-10----12------------------------------------------10-----|
B -------12----------12-----12-10-------10s12--10----10----------12----12--|
G --------------------------------12--------------12----12-9-9-------------|
D -------------------------------------------------------------------------|
A -------------------------------------------------------------------------|
E -------------------------------------------------------------------------|

e 10-12-12-12---12-19-19-19-17-15-12-----10-12-10-----12-------------------|
B ------------------------------------12----------12-----12----0-3-0-3-5---|
G -------------------------------------------------------------------------|
D -------------------------------------------------------------------------|
A -------------------------------------------------------------------------|
E -------------------------------------------------------------------------|

Return to chords for this final part of the song, or don't strum while singing and do 
following tab between verses or play these barre chords
  G	    A
e -------------------------------------------------------------------------|
B -0-3-0-3-5---------------------------------------------------------------|
G -------------------------------------------------------------------------|
D -------------------------------------------------------------------------|
A -------------------------------------------------------------------------|
E -------------------------------------------------------------------------|

You've been out there foolin' but I'm not thinkin' about ya
I've been getting the love done needs me
While you've been getting around
You've been out there foolin' but I'm not thinkin' about ya
I've been getting the love done needs me
While you've been getting around
You've been out there foolin' but I'm not thinkin' about ya
I've been getting the love done needs me
While you've been getting around
Добавлено: 09.03.2012
Другие материалы по этой песне:
  • Аккорды и текст

Страница создана 09.03.2012
http://primanota.ru/hanson/thinking-bout-something-chords.htm
Привет, Гость.
Предлагаем пройти революционный курс по гитаре.
Подарок от PrimaNota.Ru, забирай!