PrimaNota.ru - самый крупный в мире бесплатный архив песенных текстов, аккордов, табулатур и нот


Hans Zimmer - Pirates Of The Caribbean - Dead Mans Chest - бас-таба, видео

Регистрация Запомнить меня
Войти через:  Facebook Google Twitter Vk Yandex Mail.ru

Hans Zimmer - Pirates Of The Caribbean - Dead Mans Chest - бас-таба, видео

Печатать
Просмотров: 227
-------------------------------------------------------------------------------
             Pirates Of The Caribbean: Dead Man's Chest - Band Name
-------------------------------------------------------------------------------
Tabbed by: Sarah Becker


Tuning: Standard (E.A.D.G)

G|---------------------------------------------------------------------------|
D|---------------------------------------------------------------------------|
A|---------------------------------------------------------------------------|
E|---------------------------------------------------------------------------|
   1 + 2 + 3 + 1 + 2 + 3 + 1 + 2 + 3 + 1 + 2 + 3 + 1 + 2 + 3 +

G|---------------------------------------------------------------------------|
D|---------------------------------------------------------------------------|
A|---------------------------------------------------------------------------|
E|---------------------------------------------------------------------------|
   1 + 2 + 3 + 1 + 2 + 3 + 1 + 2 + 3 + 1 + 2 + 3 + 1 + 2 + 3 +

G|---------------------------------------------------------------------------|
D|---------------------------------------------------------------------------|
A|---------------------------------------------------------------------------|
E|---------------------------------------------------------------------------|
   1 + 2 + 3 + 1 + 2 + 3 + 1 + 2 + 3 + 1 + 2 + 3 + 1 + 2 + 3 +

G|---------------------------------------------------------------------------|
D|---------------------------------------------------------------------------|
A|-------------3~~~3~~~----3~~~3~~~----3~~~3~~~----3~~~3~~~------------------|
E|---------------------------------------------------------------------------|
   1 + 2 + 3 + 1 + 2 + 3 + 1 + 2 + 3 + 1 + 2 + 3 + 1 + 2 + 3 +

G|---------------------------------------------------------------------------|
D|---------------------------------------------------------------------------|
A|-3~~~3~~~----3~~~3~~~----3~~~3~~~----3~~~3~~~----3~~~3~~~------------------|
E|---------------------------------------------------------------------------|
   1 + 2 + 3 + 1 + 2 + 3 + 1 + 2 + 3 + 1 + 2 + 3 + 1 + 2 + 3 +

G|---------------------------------------------------------------------------|
D|---------------------------------------------------------------------------|
A|-3~~~3~~~----3~~~3~~~----3~~~3~~~----3~~~3~~~----3~~~3~~~------------------|
E|---------------------------------------------------------------------------|
   1 + 2 + 3 + 1 + 2 + 3 + 1 + 2 + 3 + 1 + 2 + 3 + 1 + 2 + 3 +

G|---------------------------------------------------------------------------|
D|---------------------------------------------------------------------------|
A|-3~~~3~~~----3~~~3~~~----3~~~3~~~----3~~~3~~~----3~~~3~~~------------------|
E|---------------------------------------------------------------------------|
   1 + 2 + 3 + 1 + 2 + 3 + 1 + 2 + 3 + 1 + 2 + 3 + 1 + 2 + 3 +

G|-------------------------|
D|-------------------------|
A|-3~~~3~~~----3~~~3~~~----|
E|-------------------------|
   1 + 2 + 3 + 1 + 2 + 3 + 

G|-------------------------------------------------3~~~~~~~~~~~~~0~----------|
D|-----------------0~~~~~~~~~~~2~~~3~~~~~~~~~~~~~1~--------------------------|
A|-3~~~~~~~~~~~~~~~----------------------------------------------------------|
E|---------------------------------------------------------------------------|
   1 + 2 + 3 + 4 + 1 + 2 + 3 + 4 + 1 + 2 + 3 + 4 + 1 + 2 + 3 + 4 +

G|-2~~~~~~~~~~~------------------------------------3~~~~~~~~~~~~~0~----------|
D|-----------------0~~~~~~~~~~~2~~~3~~~~~~~~~~~~~0~--------------------------|
A|-------------4~~~----------------------------------------------------------|
E|---------------------------------------------------------------------------|
   1 + 2 + 3 + 4 + 1 + 2 + 3 + 4 + 1 + 2 + 3 + 4 + 1 + 2 + 3 + 4 +

G|-2~~~~~~~~~~~------------------------------------3~~~~~~~~~~~~~0~----------|
D|-----------------0~~~~~~~~~~~2~~~3~~~~~~~~~~~~~0~--------------------------|
A|-------------4~~~----------------------------------------------------------|
E|---------------------------------------------------------------------------|
   1 + 2 + 3 + 4 + 1 + 2 + 3 + 4 + 1 + 2 + 3 + 4 + 1 + 2 + 3 + 4 +

G|-2~~~~~~~~~~~------------------------------------3~~~~~~~~~~~~~~~----------|
D|-----------------0~~~~~~~~~~~2~~~3~~~~~~~~~~~~~~~--------------------------|
A|-------------4~~~----------------------------------------------------------|
E|---------------------------------------------------------------------------|
   1 + 2 + 3 + 4 + 1 + 2 + 3 + 4 + 1 + 2 + 3 + 4 + 1 + 2 + 3 + 4 +

G|-2~~~~~~~~~~~-----------------------------------------|
D|-----------------0~0~----0~0~----0~0~----0~~~~~~~-----|
A|-------------4~~~-------------------------------------|
E|------------------------------------------------------|
   1 + 2 + 3 + 4 + 1 + 2 + 3 + 4 + 1 + 2 + 3 + 4 + 

G|-------------------------------------------------1~~~1~1~1~~~--------------|
D|-3~~~3~3~3~~~3~~~3~3~3~~~3~~~3~~~3~~~1~~~1~1~1~~~--------------------------|
A|---------------------------------------------------------------------------|
E|---------------------------------------------------------------------------|
   1 + 2 + 3 + 1 + 2 + 3 + 1 + 2 + 3 + 1 + 2 + 3 + 1 + 2 + 3 +

G|-------------1~~~1~3~3~~~5~~~5~~~5~~~--------------------------------------|
D|-1~~~1~1~1~~~------------------------3~~~~~~~1~~~--------------------------|
A|-------------------------------------------------3~3~3~~~~~~~--------------|
E|---------------------------------------------------------------------------|
   1 + 2 + 3 + 1 + 2 + 3 + 1 + 2 + 3 + 1 + 2 + 3 + 1 + 2 + 3 +

G|-------------------------------------1~~~1~3~5~~~6~~~6~~~6~5~--------------|
D|-------------3~~~3~~~3~~~1~~~1~1~1~~~--------------------------------------|
A|-3~3~3~~~~~~~--------------------------------------------------------------|
E|---------------------------------------------------------------------------|
   1 + 2 + 3 + 1 + 2 + 3 + 1 + 2 + 3 + 1 + 2 + 3 + 1 + 2 + 3 +

G|-----0~~~1~~~3~~~~~~~------------------------------------------------------|
D|-3~~~----------------------------------------------------------------------|
A|---------------------1~~~3~~~3~~~3~~~3~~~~~~~~~~~3~~~~~~~~~~~--------------|
E|---------------------------------------------------------------------------|
   1 + 2 + 3 + 1 + 2 + 3 + 1 + 2 + 3 + 1 + 2 + 3 + 1 + 2 + 3 +

G|---------------------------------------------------------------------------|
D|-------------------------------------3~~~--------3~~~----------------------|
A|-3~~~~~~~~~~~3~~~3~~~3~~~3~~~3~~~3~~~--------------------------------------|
E|---------------------------------------------------------------------------|
   1 + 2 + 3 + 1 + 2 + 3 + 1 + 2 + 3 + 1 + 2 + 3 + 1 + 2 + 3 +

G|-------------------------|
D|---------1~~~3~~~--------|
A|-3~~~3~~~----------------|
E|-------------------------|
   1 + 2 + 3 + 1 + 2 + 3 + 


| /  slide up
| \  slide down
| h  hammer-on
| p  pull-off
| ~  vibrato
| +  harmonic
| x  Mute note
===============================================================================
Добавлено: 21.07.2015
Другие материалы по этой песне:
  • Аккорды и текст

Страница создана 21.07.2015
http://primanota.ru/hans-zimmer/pirates-of-caribbean-dead-mans-chest-chords.htm
Привет, Гость.
Предлагаем пройти революционный курс по гитаре.
Подарок от PrimaNota.Ru, забирай!