PrimaNota.ru - самый крупный в мире бесплатный архив песенных текстов, аккордов, табулатур и нот


Hans Zimmer - Pearl Harbor Tennessee - таба, видео

Регистрация Запомнить меня
Войти через:  Facebook Google Twitter Vk Yandex Mail.ru

Hans Zimmer - Pearl Harbor Tennessee - таба, видео

Печатать
Просмотров: 461
     i listened to the song millions of times to get it right, but i know 1 note
is wrong. standard tuning

e--------------------------------------------------------------------------|
b----------------------------1-0-------------------------------------------|
g-------0--------------------------2-0-----------------------------------2-|
d-2-0-----4-2-2-0---------0------2-------2-0-----------3-2---2-0---3-2-3---|
a-----3-----------3-----3---3----------3-----3-3-2-0-------0-----3---------|
e-------------------0-3------------------------------3---------------------|

e-------------------------------------------------------------------------|
b-----------------------------------------1-0-1---------------------1-0-1-|
g-0---0-------0-----------0-----0-------0---------0-0-2-0-2-------0-------|
d---3---2-0-----4-2-2-0-----4-2---3-2-3---------2-------------2-0---------|
a-----------3-----------3-----------------------------------3-------------|
e-------------------------------------------------------------------------|

e-------------------------------------------------------------------------|
b---------------------1-0-1---------------------1-0-1---------------------|
g---0-0-------------0---------0-0-2-0-2-------0---------0-0---------------|
d-2-----3-2-0---2-0---------2-------------2-0---------2-----3-2-0---3-2-0-|
a-------------3-------------------------3-------------------------3-------|
e-------------------------------------------------------------------------|

e--------------------------------------------------------------------------|
b--------------------------------------------------------------------------|
g--------------------------------------------------------------------------|
d---3-2-0-----0-------0-------0--------------------------------------------|
a-3-------3-3---2-0-3---2-0-3---2--3---------------------------------------|
e--------------------------------------------------------------------------|

hope you liked it. rate high please.
Добавлено: 06.09.2013
Другие материалы по этой песне:

Страница создана 08.05.2012
http://primanota.ru/hans-zimmer/pearl-harbor-tennessee-chords.htm
Привет, Гость.
Предлагаем пройти революционный курс по гитаре.
Подарок от PrimaNota.Ru, забирай!