PrimaNota.ru - самый крупный в мире бесплатный архив песенных текстов, аккордов, табулатур и нот


Hans Zimmer - Day One - таба, видео

Регистрация Запомнить меня
Войти через:  Facebook Google Twitter Vk Yandex Mail.ru

Hans Zimmer - Day One - таба, видео

Печатать
Просмотров: 169
Авторы музыки: Hans Zimmer

-------------------------------------------------------------------------------
                             DAY ONE - Interstellar
-------------------------------------------------------------------------------
Tabbed by: monsieurthinker
E-mail:monsieurthinker@gmail.com

Tuning:Standard

e|---------------------------------------------------------------------------|
B|---------------------------------------------------------------------------|
G|---------------------------------------------------------------------------|
D|----------------------7~----9~----------7-9-10-9-7-9-10~----9~-------------|
A|7-7-7-7-7-7-7-7-7-7-7-7-7-7-7-7-7-7-7-7-7-7-7--7-7-7-7--7-7-7-7-7-7-7-7----|
E|----------------------5~----7~----------5-7-8--7-5-7-8~-----7~-------------|

e|-----------------------------------------------------------------------------|
B|-----------------------------------------------------------------------------|
G|----9----------------------9------------------------9------------------------|
D|7-----10-----9-----------7---10-9-7-9-10-----12------------------------------|
A|7-7-7-7--7-7-7-7-7-7-7-7-7-7-7--7-7-7-7--7-7-7--7-7-7-7-7-7-7-7-7-7-7-7-7-7--|
E|5-----8------7-----------5---8--7-5-7-8------10-----0------------------------|

e|--0-----0-----0-----0-----0-----0-----0-----0------------------------------|
B|------------0-----0-----1-----1-----3-----3---0----------------------------|
G|2-----2-----0-----0-----2-----2-----0-----0--------------------------------|
D|3-----3-----2-----2-----2-----2-----2-----2--------------------------------|
A|3-----3-----------------0-----0--------------------------------------------|
E|1-----1-----3-----3-----------------3-----3--------------------------------|

e|--0-----0-----0-----0-----0-----0-----0-----0------------------------------|
B|------------0---0-0---0-1---1-1---1-3---3-3---0----------------------------|
G|2---2-2---2-0-----0-----2-----2-----0-----0--------------------------------|
D|3-----3-----2-----2-----2-----2-----2-----2--------------------------------|
A|3-----3-----------------0-----0--------------------------------------------|
E|1-----1-----3-----3-----------------3-----3--------------------------------|

e|--0-----0-----0-----0-----0-----0-----0-----0------------------------------|
B|----1-----1-0---1-0---1-1---1-1---1-3---0-3--------------------------------|
G|2-----2-----0-----0-----2-----2-----0-----0--------------------------------|
D|3-----3-----2-----2-----2-----2-----2-----2---------2-2-2-2-2-2-2-2-2-2-2--|
A|3-----3-----------------0-----0--------------------------------------------|
E|1-----1-----3-----3-----------------3-----3---1-0--------------------------|


************************************

| /   slide up
| \   slide down
| h   hammer-on
| p   pull-off
| ~   vibrato
| +   harmonic
| x   Mute note
| b   Bend
| pb  Pre-bend
| br  Bend release
| pbr Pre-bend release
| brb Bend release bend

************************************
Добавлено: 16.04.2016
Другие материалы по этой песне:

Страница создана 21.07.2015
http://primanota.ru/hans-zimmer/day-one-chords.htm
Привет, Гость.
Предлагаем пройти революционный курс по гитаре.
Подарок от PrimaNota.Ru, забирай!