PrimaNota.ru - самый крупный в мире бесплатный архив песенных текстов, аккордов, табулатур и нот


Hans Zimmer - An Ideal Of Hope - таба, видео

Регистрация Запомнить меня
Войти через:  Facebook Google Twitter Vk Yandex Mail.ru

Hans Zimmer - An Ideal Of Hope - таба, видео

Печатать
Просмотров: 636
-------------------------------------------------------------------------------
                             AN IDEAL OF HOPE - Hans Zimmer
-------------------------------------------------------------------------------
Tabbed by: Seismatters
E-mail:

Tuning: Standard E A D G B E 

Piano Opening
e|--3-------0------3-------------3------------------------------------------|
B|------6----------6----3-5------6------6---6-5-3---------------------------|
G|-5----5---5----5-5------2----5-5----5-5---5-5-5---------------------------|
D|--------------------------------------------------------------------------|
A|--------------------------------------------------------------------------|
E|--------------------------------------------------------------------------|

Violin Riff
e|--------------------------------------------------------------------------|
B|--------------------------------------------------------------------------|
G|--------------------------------------------------------------------------|
D|--------------------------------------------------------------------------|
A|--------------------------------------------------------------------------|
E|-8-8-8-7-8-8-8-8-7-8-8-8-8-7-8-8-8-8-7-8----------------------------------|

Violin Riff Part 2
e|--------------------------------------------------------------------------|
B|--------------------------------------------------------------------------|
G|--------------------------------------------------------------------------|
D|-2-0-2-3-2-0---0-5-3-2-0-2-0---0------------------------------------------|
A|-------------3---------------3--------------------------------------------|
E|--------------------------------------------------------------------------|

Piano Riff (Played w/ Violin Riff Part 2)
     C     F     C     F     C      
e|--------------------------------------------------------------------------|
B|--------------------------------------------------------------------------|
G|--------------------------------------------------------------------------|
D|---10----10----10----------10---------------------------------------------|
A|---10----12----10----8-----10---------------------------------------------|
E|-8-8---8-8---8-8---8-8---8-8----------------------------------------------|

Transition to Main Riff
  Cm/G         G#          C/G          G#          F
e|-3---8-7-8---4---3-1-3----3---8-7-8---4---3-1-----1---8-7-8---------------|
B|-4-----------4------------5-----------4-------4---2-----------------------|
G|-5-----------5------------5-----------5-----------3-----------------------|
D|-5-----------6------------5-----------6-----------3-----------------------|
A|-3-----------6------------3-----------6-----------1-----------------------|
E|-3-----------4------------3-----------4-----------1-----------------------|

Transition to Main Riff Part 2 (Play w/ Violin Riff Part 2)
  C#/G#    F#    C#/G#    Am       Bm
e|-4-------2-------4-------5-------7----------------------------------------|
B|-6-------2-------6-------5-------7----------------------------------------|
G|-6-------3-------6-------5-------7----------------------------------------|
D|-6-------4-------6-------7-------9----------------------------------------|
A|-4-------4-------4-------7-------9----------------------------------------|
E|-4-------2-------4-------5-------7----------------------------------------|

Main Riff
  C/G         G#       F              G#
e|-8-7-8-------------------8-7-8--------------------------------------------|
B|--------6-8-9--8-6-8-10---------6-8-9--8-6-8------------------------------|
G|--------------------------------------------------------------------------|
D|--------------------------------------------------------------------------|
A|--------------------------------------------------------------------------|
E|--------------------------------------------------------------------------|


Добавлено: 27.09.2013
Другие материалы по этой песне:

Страница создана 27.09.2013
http://primanota.ru/hans-zimmer/an-ideal-of-hope-chords.htm
Привет, Гость.
Предлагаем пройти революционный курс по гитаре.
Подарок от PrimaNota.Ru, забирай!