PrimaNota.ru - самый крупный в мире бесплатный архив песенных текстов, аккордов, табулатур и нот


Hans Soellner - Mei Vodda Hot An Marihuanabaam - таба, видео

Регистрация Запомнить меня
Войти через:  Facebook Google Twitter Vk Yandex Mail.ru

Hans Soellner - Mei Vodda Hot An Marihuanabaam - таба, видео

Печатать
Просмотров: 73
Artist: Hans Söllner
Title: Mei Vodda hot an Marihuanabaam
Tuning: normal (E A D G H e)

Tabbed by: Schadi (Schadhauserflo@aol.com)

Es is (glab I) a ganz einfacher Blues in E!!

INTRO
E-------------------------------------------------------------------------------
H-------------------------------------------------------------------------------
G-------------------------------------------------------------------------------
D-------------------------------------------------------------------------------
A---2-2--4-4--2-2--4-4--2-2--4-4--2-2--4-4--9-9--11-11--9-9--11-11--------------
E---0-0--0-0--0-0--0-0--0-0--0-0--0-0--0-0--7-7--7--7---7-7--7--7---------------

E-------------------------------------------------------------------------------
H-------------------------------------------------------------------------------
G-------------------------------------------------------------------------------
D-------------------------------------------------------------------------------
A---7-7--9-9--7-7--7-7--7-7-7---------------------------------------------------
E---5-5--5-5--5-5--5-5--5-5-5---------------------------------------------------


VERSE

E-------------------------------------------------------------------------------
H-------------------------------------------------------------------------------
G-------------------------------------------------------------------------------
D-------------------------------------------------------------------------------
A---2-2--4-4--2-2--4-4--2-2--4-4--2-2--4-4--9-9--11-11--9-9--11-11--------------
E---0-0--0-0--0-0--0-0--0-0--0-0--0-0--0-0--7-7--7--7---7-7--7--7---------------

E-------------------------------------------------------------------------------
H-------------------------------------------------------------------------------
G-------------------------------------------------------------------------------
D-------------------------------------------------------------------------------
A---7-7--9-9--7-7--9-9----------------------------------------------------------
E---5-5--5-5--5-5--5-5----------------------------------------------------------

Füan Übagang zum Refrain spuits einfach a E

REFRAIN
E-------------------------------------------------------------------------------
H-------------------------------------------------------------------------------
G-------------------------------------------------------------------------------
D-------------------------------------------------------------------------------
A---9-9--11-11--9-9--11-11--7-7--9-9--7-7--9-9--2-2--4-4--2-2--4-4--2-2--4-4--2-
E---7-7--7--7---7-7--7--7---5-5--5-5--5-5--5-5--0-0--0-0--0-0--0-0--0-0--0-0--0-

A 2--4-4
E 0--0-0
Dea Übagang zua nachsten Strophen is ungefär wia as INTRO. 

Füa alle Breißn:
Tschuldigung wegen meina boarischen Schreibweisn!!!!
     
Добавлено: 25.07.2013
Другие материалы по этой песне:
  • Аккорды и текст

Страница создана 25.07.2013
http://primanota.ru/hans-soellner/mei-vodda-hot-an-marihuanabaam-chords.htm
Привет, Гость.
Предлагаем пройти революционный курс по гитаре.
Подарок от PrimaNota.Ru, забирай!