PrimaNota.ru - самый крупный в мире бесплатный архив песенных текстов, аккордов, табулатур и нот


Hanoi Rocks - Walking With My Angel - текст песни, бас-таба, видео

Регистрация Запомнить меня
Войти через:  Facebook Google Twitter Vk Yandex Mail.ru

Hanoi Rocks - Walking With My Angel - текст песни, бас-таба, видео

Печатать
Просмотров: 119
Hanoi Rocks
Walking With My Angel

Intro
G---R-----R-------------R---R-----R----------|
D---E-----E-------------E---E-----E----------|
A-3-S---3-S---3---3---3-S-3-S---3-S---3---3~-|
E---T-3---T-3---3---3---T---T-3---T-3---3----|

Sax Solo
G---5-----5-------------5----5------------7-----7---5-----5--------|
D-------------5-----5-----------5-----5----------------------------|
A-3---3-3-------------3---3-3-----------5---5-5---3---3-3--5-3-2---|
E-----------3---3-3-----------3---3-3----------------------------3-|

Chorus
G---5-----5-------------5----5------------7-----7---5-----5---------|
D-------------5-----5-----------5-----5-----------------------------|
A-3---3-3-------------3---3-3-----------5---5-5---3---3-3--5-3-2----|
E-----------3---3-3-----------3---3-3----------------------------3--| x2

Verse
G----------------------------------------------------------R-----------|
D----------------------------------------------------------E-----------|
A-----------------3-3-3-3-3-3-3-3--------------------------S---3-2-----|
E-3-3-3-3-3-3-3-3-----------------3/10-10-10-10-10-8-7-5-3-T-3-----5-3-|

Chorus
G---5-----5-------------5----5------------7-----7---5-----5---------|
D-------------5-----5-----------5-----5-----------------------------|
A-3---3-3-------------3---3-3-----------5---5-5---3---3-3--5-3-2----|
E-----------3---3-3-----------3---3-3----------------------------3--| x2

Sax Solo
G---5-----5-------------5----5------------7-----7---5-----5---------|
D-------------5-----5-----------5-----5-----------------------------|
A-3---3-3-------------3---3-3-----------5---5-5---3---3-3--5-3-2----|
E-----------3---3-3-----------3---3-3----------------------------3--| x2

Verse
G----------------------------------------------------------R-----------|
D----------------------------------------------------------E-----------|
A-----------------3-3-3-3-3-3-3-3--------------------------S---3-2-----|
E-3-3-3-3-3-3-3-3-----------------3/10-10-10-10-10-8-7-5-3-T-3-----5-3-|

Chorus
G---5-----5-------------5----5------------7-----7---5-----5DF-|
D-------------5-----5-----------5-----5-----------------------|RI
A-3---3-3-------------3---3-3-----------5---5-5---3---3-3-----|UL
E-----------3---3-3-----------3---3-3-------------------------|ML

G---5-----5---------------|DF
D-------------5-----5-----|RI
A-3---3-3-----------------|UL
E-----------3---3-3---ML--| x3

Outro
G---R-----R-------------R---R-----R----------|
D---E-----E-------------E---E-----E----------|
A-3-S---3-S---3---3---3-S-3-S---3-S---3---3~-|
E---T-3---T-3---3---3---T---T-3---T-3---3----|
Добавлено: 07.07.2012
Другие материалы по этой песне:
  • Аккорды и текст

Страница создана 06.05.2012
http://primanota.ru/hanoi-rocks/walking-with-my-angel-chords.htm
Привет, Гость.
Предлагаем пройти революционный курс по гитаре.
Подарок от PrimaNota.Ru, забирай!