PrimaNota.ru - самый крупный в мире бесплатный архив песенных текстов, аккордов, табулатур и нот


Hanoi Rocks - Delirious - текст песни, таба, видео

Регистрация Запомнить меня
Войти через:  Facebook Google Twitter Vk Yandex Mail.ru

Hanoi Rocks - Delirious - текст песни, таба, видео

Печатать
Просмотров: 124
#########################
#HANOI ROCKS - DELIRIOUS#
#########################


G5: 3|5|5|x|x|x|
F#5 2|4|4|x|x|x|  
E5: 0|2|2|x|x|x|
D5: x|5|7|7|x|x|



Intro: 2x
  D                      A
|-2--|-----------------|-0--|----------------------|
|-3--|-----------------|-2--|----------------------|
|-2--|---5-4-2---2-----|-2--|----------------------|
|-0--|---------5---5-4-|-2--|--5-4-2----2----------|
|----|-----------------|-0--|---------5---5-4------|
|----|-----------------|----|----------------------|


G5            F#5    E5   D5
No-one in the world likes me
G5               F#5   E5  D5
No-one get's it right with me
D/C# Bm                           A 
     No-one knows what I'm about 
G
that's why I just scream and shout
E5                                A 
No-one stands up for the real me 

                  D
You don't take me  serious 
                   |-3---2---3---2-0-2--||-3---2---3---2-0-2--|
                   |-3-x-3-x-3-x-3-3-3--||-3-x-3-x-3-x-3-3-3--|
                   |-2-x-2-x-2-x-2-2-2--||-2-x-2-x-2-x-2-2-2--|
                   |-0-x-0-x-0-x-0-0-0--||-0-x-0-x-0-x-0-0-0--|
                   |--------------------||--------------------|
                   |--------------------||--------------------|
               A
Say I'm just delirious              
             |---------------------||--------------------|
             |-3-x-2-x-3-x-2-0-2---||-3-x-2-x-3-x-2-0-2--|
             |-2-x-2-x-2-x-2-2-2---||-2-x-2-x-2-x-2-2-2--|
             |-2-x-2-x-2-x-2-2-2---||-2-x-2-x-2-x-2-2-2--|
             |---------------------||--------------------|
             |---------------------||--------------------|


              D
Say I'm not responsible
            D
I'm just impossible
            A
I'm just delirious

        G5              F#5   E5     D5
Well I hope someone up there loves  me
G5                 F#5   E5 D5
Don't know where I been lately
D/C# Bm                     
     Close my eyes and I see red 
G
Was it something I just said
E5                          A
Maybe I'm going out of my head


(Chorus)
(Solo)
(Close my eyes..)
(Chorus)

****************
*Anton Grahn**********
*Grahn58@hotmail.com******
*******************************
Добавлено: 05.06.2012
Другие материалы по этой песне:
  • Аккорды и текст

Страница создана 12.05.2012
http://primanota.ru/hanoi-rocks/delirious-chords.htm
Привет, Гость.
Предлагаем пройти революционный курс по гитаре.
Подарок от PrimaNota.Ru, забирай!