PrimaNota.ru - самый крупный в мире бесплатный архив песенных текстов, аккордов, табулатур и нот


Hanoi Rocks - A Day Late A Dollar Short - текст песни, таба, видео

Регистрация Запомнить меня
Войти через:  Facebook Google Twitter Vk Yandex Mail.ru

Hanoi Rocks - A Day Late A Dollar Short - текст песни, таба, видео

Печатать
Просмотров: 149
Уроки эстрадного вокала в Санкт-Петербурге
Here's Hanoi Rock's A Day Late A Dollar Short Guitar Tabs. I know that those one riffs 
not the right ones but they sounds really nice!

e-------------------------------------|
H---7--8--10--8-----------------------|
G-9-----------------------------------| 3x
D-------------------------------------|
A-------------------------------------|
E-------------------------------------|

e-------------------------------------|
H---7--8/--17--17--17-----------------|
G-9-----------------------------------|
D-------------------------------------|
A-------------------------------------|
E-------------------------------------|

e-------------------------------------|
H---7--8--10--8-----------------------|
G-9-----------------------------------| 3x
D-------------------------------------|
A-------------------------------------|
E-------------------------------------|

e-------------------------------------|
H---7--8/--17--17--17-----------------|
G-9-----------------------------------|
D-------------------------------------|
A-------------------------------------|
E-------------------------------------|

e-------------------------------------|
H-------------------------------------|
G-------------------------------------|
D--------------------9-9-9-9-9--9--9--| 2x
A---5--5----7--7-----9-9-9-9-9--9--9--|
E-3-------5----------7-7-7-7-7--7--7--|

e-------------------------------------|
H-------------------------------------|
G-------------------------------------|
D-5--7--9--7--9--7--9-----------------|
A-5--7--9--7--9--7--9-----------------|
E-2--5--7--5--7--5--7-----------------|

e-------------------------------------|
H-------------------------------------|
G-------------------------------------|
D--------------------9-9-9-9-9--9--9--| 2x
A---5--5----7--7-----9-9-9-9-9--9--9--|
E-3-------5----------7-7-7-7-7--7--7--|

e-------------------------------------|
H-------------------------------------|
G-------------------------------------|
D-5--7--9--7--9--7--9-----------------|
A-5--7--9--7--9--7--9-----------------|
E-2--5--7--5--7--5--7-----------------|


e-------------------------------------|
H-------------------------------------|
G-------------------------------------|
D-5--7--999999999-101010101010101010--|
A-5--7--999999999-101010101010101010--|
E-2--5--777777777--8-8-8-8-8-8-8-8-8--|

e-------------------------------------|
H---7--8--10--8-----------------------|
G-9-----------------------------------| 3x
D-------------------------------------|
A-------------------------------------|
E-------------------------------------|

e-------------------------------------|
H---7--8/--17--17--17-----------------|
G-9-----------------------------------|
D-------------------------------------|
A-------------------------------------|
E-------------------------------------|

e-------------------------------------|
H-------------------------------------|
G-------------------------------------|
D--------------------9-9-9-9-9--9--9--| 2x
A---5--5----7--7-----9-9-9-9-9--9--9--|
E-3-------5----------7-7-7-7-7--7--7--|

e-------------------------------------|
H-------------------------------------|
G-------------------------------------|
D-5--7--9--7--9--7--9-----------------|
A-5--7--9--7--9--7--9-----------------|
E-2--5--7--5--7--5--7-----------------|

e-------------------------------------|
H-------------------------------------|
G-------------------------------------|
D-5--7--999999999-101010101010101010--|
A-5--7--999999999-101010101010101010--|
E-2--5--777777777--8-8-8-8-8-8-8-8-8--|

Then there comes that one little part what i havent writed here.. The Lyrics are:

We're all just lonely people
Only dyin' to fall in love
Feelings that we thought

And then it goes on..

e-------------------------------------|
H-------------------------------------|
G-------------------------------------|
D-5--7--999999999-101010101010101010--|
A-5--7--999999999-101010101010101010--|
E-2--5--777777777--8-8-8-8-8-8-8-8-8--|

Then comes that solo what Michael Monroe plays.. then it goes on..

e-------------------------------------|
H-------------------------------------|
G-------------------------------------|
D-5--7--9--7--9--7--9-----------------|
A-5--7--9--7--9--7--9-----------------|
E-2--5--7--5--7--5--7-----------------|

e-------------------------------------|
H-------------------------------------|
G-------------------------------------|
D-5--7--9--7--9--7--9-----------------|
A-5--7--9--7--9--7--9-----------------|
E-2--5--7--5--7--5--7-----------------|

e-------------------------------------|
H-------------------------------------|
G-------------------------------------|
D-5--7--999999999-101010101010101010--|
A-5--7--999999999-101010101010101010--|
E-2--5--777777777--8-8-8-8-8-8-8-8-8--|

Then comes that first riff i dont now where to play it that it would be correct but i 
it like:

e-------------------------------------|
H----10--11--13--11-------------------|
G-12----------------------------------| 3x
D-------------------------------------|
A-------------------------------------|
E-------------------------------------|

e-------------------------------------|
H----10--11/--20--20--20--------------|
G-12----------------------------------|
D-------------------------------------|
A-------------------------------------|
E-------------------------------------|

e-------------------------------------|
H----10--11--13--11-------------------|
G-12----------------------------------| 3x
D-------------------------------------|
A-------------------------------------|
E-------------------------------------|

e-------------------------------------|
H----10--11/--20--20--20--------------|
G-12----------------------------------|
D-------------------------------------|
A-------------------------------------|
E-------------------------------------|

e-------------------------------------|
H----10--11--13--11-------------------|
G-12----------------------------------| 3x
D-------------------------------------|
A-------------------------------------|
E-------------------------------------|

e-------------------------------------|
H----10--11/--20--20--20--------------|
G-12----------------------------------|
D-------------------------------------|
A-------------------------------------|
E-------------------------------------|

e-------------------------------------|
H----10--11--13--11-------------------|
G-12----------------------------------| 3x
D-------------------------------------|
A-------------------------------------|
E-------------------------------------|

e-------------------------------------|
H----10--11/--20--20--20--------------|
G-12----------------------------------|
D-------------------------------------|
A-------------------------------------|
E-------------------------------------|

e-------------------------------------|
H----10--11--13--11-------------------|
G-12----------------------------------| 3x
D-------------------------------------|
A-------------------------------------|
E-------------------------------------|

e-------------------------------------|
H----10--11/--20--20--20--------------|
G-12----------------------------------|
D-------------------------------------|
A-------------------------------------|
E-------------------------------------|

e-------------------------------------|
H----10--11--13--11-------------------|
G-12----------------------------------| 3x
D-------------------------------------|
A-------------------------------------|
E-------------------------------------|

e-------------------------------------|
H----10--11/--20--20--20--------------|
G-12----------------------------------|
D-------------------------------------|
A-------------------------------------|
E-------------------------------------|


Thats it there is Hanoi Rock's A Day Late A Dollar Short! Have fun playing it!
Добавлено: 06.05.2012
Другие материалы по этой песне:

Страница создана 06.05.2012
http://primanota.ru/hanoi-rocks/a-day-late-a-dollar-short-chords.htm
Привет, Гость.
Предлагаем пройти революционный курс по гитаре.
Подарок от PrimaNota.Ru, забирай!