PrimaNota.ru - самый крупный в мире бесплатный архив песенных текстов, аккордов, табулатур и нот


Hanni El Khatib - Nobody Move - таба, видео

Регистрация Запомнить меня
Войти через:  Facebook Google Twitter Vk Yandex Mail.ru

Hanni El Khatib - Nobody Move - таба, видео

Печатать
Просмотров: 451
Song Name: Nobody Move
Artist: Hanni El Khatib
Album: Head in the Dirt (2013)


Alright, this song isn't particularly difficult to learn, but since it is
at a fast pace it'll get kinda tricky due to the way the song is played.
I used a distortion pedal to give it a bit of a crunch, I don't know if
that's what Hanni uses but (maybe with a slight fuzz) but tinker around
with your equipment to get a similar sound. As far as the tab goes
I'm pretty damn sure this is accurate. I did it in less than one afternoon
while watching his performances on youtube so I'm pretty confident in it.
(hell, it might even be the same thing!)

v= vibrato

Guitar 1 (Hanni)

Main Riff
e|--------------------------------------|
B|--------------------------------------|
G|--------------------------------------|
D|--------------------------------------|
A|--------1---1-3-3-3-3-1-0-------------|
E|--3-3-3---3---------------------------|

2nd Guitar

Pick E and then Upstroke the barred chord. (4) add it if you want

e|------3--------------------------------|
B|------3--------------------------------|
G|------3(4)--x2-------------------------|
D|------5--------------------------------|
A|------5--------------------------------|
E|----3----------------------------------|

After the second upstroke, follow it by another low E pick but then upstroke G and
quickly switch to the next chord as a downstroke. I don't what the chord is called.

e|------3-------3-3-3-------------------|
B|------3-------4-4-4-------------------|
G|------3(4)----5-5-5-------------------|
D|------5-------5-5-5-------------------|
A|------5-------3-3-3-------------------|
E|----3-------3-------------------------|

e|--------------------------------------|
B|--------------------------------------|
G|--------------------------------------|
D|--------------------------------------|
A|--------1---1-3-3-3-3-1-0-------------|
E|--3-3-3---3---------------------------|

Solo/Fill #1

e|----------------------------------------------------------|
B|----------------------11v----11v-13v-13v-13v-13v-11v-10v--|
G|-------10/12v-12v-12v----12v------------------------------|
D|----------------------------------------------------------|
A|----------------------------------------------------------|
E|----------------------------------------------------------|


e|------3-----------3-3-3-----------------|
B|------3-----------4-4-4-----------------|
G|------3(4)--x2----5-5-5-----------------|
D|------5-----------5-5-5-----------------|
A|------5-----------3-3-3-----------------|
E|----3-----------3-----------------------|


This is the heavy bass part that is played by the guitar after

e|---------------------------------------------|
B|---------------------------------------------|
G|---------------------------------------------|
D|-5-5-5-5-5-----------------------------------|
A|-5-5-5-5-5---x3------------------------------|
E|-3-3-3-3-3----------3-0-1-2-3----------------|

e|--------------------------------------|
B|--------------------------------------|
G|--------------------------------------|
D|--------------------------------------|
A|--------1---1-3-3-3-3-1-0-------------|
E|--3-3-3---3---------------------------|



Solo/Fill #2 (with fuzz/distortion)
e|---------------------------------------------|
B|---------------------------------------------|
G|--------------3v----3v-5v-5v-5v-5v-3v-2v-----|
D|----3/5-5v-5v----5v--------------------------|
A|---------------------------------------------|
E|---------------------------------------------|
Добавлено: 04.11.2013
Другие материалы по этой песне:
  • Аккорды и текст

Страница создана 04.11.2013
http://primanota.ru/hanni-el-khatib/nobody-move-chords.htm
Привет, Гость.
Предлагаем пройти революционный курс по гитаре.
Подарок от PrimaNota.Ru, забирай!