PrimaNota.ru - самый крупный в мире бесплатный архив песенных текстов, аккордов, табулатур и нот


Hannah Montana - Supergirl - текст песни, таба, видео

Регистрация Запомнить меня
Войти через:  Facebook Google Twitter Vk Yandex Mail.ru

Hannah Montana - Supergirl - текст песни, таба, видео

Печатать
Просмотров: 271
 -- Hannah Montana – Supergirl --

standard tuning EADGBE

tabbed by x-tasha-x
 
Intro: 
E||----------|  
B||----------|  
G||----------|x4
D||-4-44-----|  
A||-4-44-----|  
E||-2-22-----|


Verse: 
guitar 1 (palm muted)
E||------------------------------------------------------|  
B||------------------------------------------------------|  
G||----------------------------------77777777------------|x2
D||-44444444444444444444444444444444-77777777-7777-6666--|  
A||-44444444444444444444444444444444-55555555-7777-6666--|  
E||-22222222222222222222222222222222----------5555-4444--|

guitar 2: 
E||----------------------------------------------------------| 
B||----------------------------------------------------------|   
G||--------------------------------9999-10-11b--9999-10-11b--|x2
D||----------------------------------------------------------|  
A||----------------------------------------------------------|  
E||----------------------------------------------------------|  


Pre Chorus:
E||----------|  
B||----------|  
G||----------|x4
D||-4-44-----|  
A||-4-44-----|  
E||-2-22-----|


Chorus: (guitar 1 & 2)
E||-------------------------------------------|  
B||-------------------------------------------|  
G||----------77777777-------------------------|
D||-44444444-77777777-7-7--7-7-77-7-7--7-7-6--| x2 
A||-44444444-55555555-7-7--7-7-77-7-7--7-7-6--|  
E||-22222222----------5-5--5-5-55-5-5--5-5-4--|

then
guitar 1:
E||-----------------------------------------------------------------------| 
B||-----------------------------------------------------------------------|  
G||-----------------------------------------------------------------77-66-| 
D||-44444444-66666666-77777777-99999999-44444444-66666666-77777777--xx-xx-|
A||-44444444-66666666-77777777-99999999-44444444-66666666-77777777--55-44-| 
E||-22222222-44444444-55555555-77777777-22222222-44444444-55555555--------|

guitar 2: 
E||------------|  |---------------| 
B||------------|  |---------------|  
G||-9999-10-11b|x7|--------77-66--| 
D||------------|  |--------xx-xx--|
A||------------|  |--------55-44--| 
E||------------|  |---------------|


Before Verse:
E||----------|  
B||----------|  
G||----------|x4
D||-4-44-----|  
A||-4-44-----|  
E||-2-22-----|


Verse 2:
guitar 1 (palm muted)
E||------------------------------------------------------|  
B||------------------------------------------------------|  
G||----------------------------------77777777------------|
D||-444444444444----4444444444444444-77777777-7777-6666--|  
A||-444444444444----4444444444444444-55555555-7777-6666--|  
E||-222222222222----2222222222222222----------5555-4444--|

E||------------------------------------------------------|  
B||------------------------------------------------------|  
G||----------------------------------77777777------------|
D||-44444444444444444444444444444444-77777777-7777-6666--|  
A||-44444444444444444444444444444444-55555555-7777-6666--|  
E||-22222222222222222222222222222222----------5555-4444--|

guitar 2:
E||----------------------------------------------------------| 
B||----------------------------------------------------------|   
G||--------------------------------9999-10-11b--9999-10-11b--|x2
D||----------------------------------------------------------|  
A||----------------------------------------------------------|  
E||----------------------------------------------------------|  


Pre Chorus:
E||----------|  
B||----------|  
G||----------|x4
D||-4-44-----|  
A||-4-44-----|  
E||-2-22-----|


Chorus 2:
E||-------------------------------------------|  
B||-------------------------------------------|  
G||----------77777777-------------------------|
D||-44444444-77777777-7-7--7-7-77-7-7--7-7-6--| x2 
A||-44444444-55555555-7-7--7-7-77-7-7--7-7-6--|  
E||-22222222----------5-5--5-5-55-5-5--5-5-4--|

then
guitar 1:
E||-----------------------------------------------------------------------| 
B||-----------------------------------------------------------------------|  
G||-----------------------------------------------------------------------| 
D||-44444444-66666666-77777777-99999999-44444444-66666666-77777777--------|
A||-44444444-66666666-77777777-99999999-44444444-66666666-77777777--------| 
E||-22222222-44444444-55555555-77777777-22222222-44444444-55555555--------|

guitar 2: 
E||------------|  
B||------------|    
G||-9999-10-11b|x7
D||------------|  
A||------------|  
E||------------|  


Bridge:
(guitar 1 & 2)
E||---------------------------------------------------|  
B||---------------------------------------------------|  
G||------7777-----------------7777-9999-10-10-10-10---|
D||-4444-7777-777777-66--4444-7777-9999-10-10-10-10---|  
A||-4444-5555-777777-66--4444-5555-7777-8--8--8--8----|  
E||-2222------555555-44--2222-------------------------|


end with chorus:
(guitar 1 & 2)
E||-------------------------------------------|  
B||-------------------------------------------|  
G||----------77777777-------------------------|
D||-44444444-77777777-7-7--7-7-77-7-7--7-7-6--| x2 
A||-44444444-55555555-7-7--7-7-77-7-7--7-7-6--|  
E||-22222222----------5-5--5-5-55-5-5--5-5-4--|

then
guitar 1:
E||-----------------------------------------------------------------------| 
B||-----------------------------------------------------------------------|  
G||-----------------------------------------------------------------------| 
D||-44444444-66666666-77777777-99999999-44444444-66666666-77777777--------|
A||-44444444-66666666-77777777-99999999-44444444-66666666-77777777--------| 
E||-22222222-44444444-55555555-77777777-22222222-44444444-55555555--------|

guitar 2: 
E||------------|  
B||------------|    
G||-9999-10-11b|x7
D||------------|  
A||------------|  
E||------------|  
Добавлено: 03.06.2012
Другие материалы по этой песне:
  • Аккорды и текст

Страница создана 26.04.2012
http://primanota.ru/hannah-montana/supergirl-chords.htm
Привет, Гость.
Предлагаем пройти революционный курс по гитаре.
Подарок от PrimaNota.Ru, забирай!