PrimaNota.ru - самый крупный в мире бесплатный архив песенных текстов, аккордов, табулатур и нот


Hannah Montana - Its All Right Here - текст песни, таба, видео

Регистрация Запомнить меня
Войти через:  Facebook Google Twitter Vk Yandex Mail.ru

Hannah Montana - Its All Right Here - текст песни, таба, видео

Печатать
Просмотров: 176
Уроки эстрадного вокала в Санкт-Петербурге
          -----------------------------------------------------------------------------
                                        **It's All Right Here – Hannah Montana**
          -----------------------------------------------------------------------------
Tabbed by:me
Tuning: Standard

My sisters and I can't get this song out of our heads! A fun, funky new song by 
mean Miley.

If you listen to the song, you can figure out the strum patterns, not too hard.

Intro pt 1

e|-----------------------------------------------|
B|-----------------------------------------------|
G|------10----10\--------------------------------|    x4
D|------10----10\--------------------------------|
A|-------8-----8\--------------------------------|
E|-----------------------------------------------|

Intro pt 2 (Guitar 1)

e|-----------------------------------------------|
B|-----------------------------------------------|
G|--------------------------3--------------------| x2
D|----3----------5----------3----------3---------|
A|----3----------5----------1----------3---------|
E|----1----------3---------------------1---------|

Intro pt 2 (Guitar 2)

e|--1--1--0h1--0h1--1--0h1------1--1--0h1--0h1--1--0h1------------------|
B|---------------------------3--------------------------3---------------|
G|----------------------------------------------------------------------|
D|----------------------------------------------------------------------|
A|----------------------------------------------------------------------|
E|----------------------------------------------------------------------|


e|--1--1--0h1--0h1--1--0h1------------------------|
B|---------------------------3--1-----------------|
G|------------------------------------------------|
D|------------------------------------------------|
A|------------------------------------------------|
E|------------------------------------------------|

e|--1--1--0h1--0h1--1--0h1------3--3--1h3-----3--3--1h3------------|
B|---------------------------3-------------3-------------1---------|
G|-----------------------------------------------------------------|
D|-----------------------------------------------------------------|
A|-----------------------------------------------------------------|
E|-----------------------------------------------------------------|


e|--6--6--6--6--6--6--6h5----------------------|
B|-------------------------8--6----------------|
G|---------------------------------------------|
D|---------------------------------------------|
A|---------------------------------------------|
E|---------------------------------------------|

Verse
e|-----------------------------------------------|
B|-----------------------------------------------|
G|--------------------------3--------------------| x2
D|----3----------5----------3----------3---------|
A|----3----------5----------1----------3---------|
E|----1----------3---------------------1---------|

-Why would you rather be, anywhere else with me? I tell ya man it's all right here
-Check out the scenery, we won the lottery, I tell ya man it's all right here


e|------------------------------------------------------------|
B|------------------------------------------------------------|
G|-----7--------------------------------5---------------------|
D|-----7----------8----------5----------5---------------------|
A|-----5----------8----------5----------3---------------------|
E|----------------6----------3--------------------------------|

-And I can't believe, you'd even think, of being anyplace, anyplace but right here


e|------------------------------------------------------------|
B|------------------------------------------------------------|
G|----------------7--------------------5----------------------|
D|-----7----------7----------5---------5----------------------|
A|-----7----------5----------5---------3----------------------|
E|-----5-------------------- 3--------------------------------|

-The grass may be greener in the end I swear, but you'll be wishing you were here if you
there. It's wherever we go

(Guitar 1) (part with the cars honking and stuff)

e|-----------------------------------------------|
B|-----------------------------------------------|
G|------10----10\--------------------------------|    x8
D|------10----10\--------------------------------|
A|-------8-----8\--------------------------------|
E|-----------------------------------------------|

-(Wherever we are, wherever we are, wherever we are, wherever we are, it's all right here)

After playing the above part 4 times, another guitar comes in and plays this during the 
4 times:

(Right after she says “Excuse me Officer”…I don't really get why she does)

e|----------------------------------------------|
B|----------------------------------------------|
G|----------------------------------------------| x4
D|--3-----------3--3----------------------------|
A|-----5--3--5--------5--3--5-------------------|
E|----------------------------------------------|


I'm not too sure about this part.

e|-----------------------------------|
B|-----------------------------------|
G|------3----------------------------|
D|------3----------------3-----------|
A|------1----------------3-----------|
E|-----------------------1-----------|

-If you're smart, you know you wanna be in the mix of white hot energy, it's all to 
you.

e|-----------------------------------|
B|-----------------------------------|
G|------3----------------5-----------|
D|------3----------------5-----------|
A|------1----------------3-----------|
E|-----------------------------------|

-Time's so good it's moving way too fast, if we could I know we'd make it last.
-It's all here for you, it's all here for you, it's all here for you it's all right here.


***REPEAT INTRO PT 2 (Guitars 1 & 2)***

e|------------------------------------------------------------|
B|------------------------------------------------------------|
G|-----7--------------------------------5---------------------|
D|-----7----------8----------5----------5---------------------|
A|-----5----------8----------5----------3---------------------|
E|----------------6----------3--------------------------------|

-And the open road, will take us anywhere, but as long as I'm with you I won't care where

e|------------------------------------------------------------|
B|------------------------------------------------------------|
G|----------------7--------------------5----------------------|
D|-----7----------7----------5---------5----------------------|
A|-----7----------5----------5---------3----------------------|
E|-----5-------------------- 3--------------------------------|

-And we can choose the desert or the sea, ‘cuz the good times are in front of you and me

e|-----------------------------------------------|
B|-----------------------------------------------|
G|--------------------------5--------------------| x2
D|----5----------7----------5----------5---------|
A|----5----------7----------3----------5---------|
E|----3----------5---------------------3---------|

-Why would you rather be, anywhere else with me? I tell ya' man it's all right here
-Check out the scenery, we won the lottery, I tell ya' man it's all right here

e|-----------------------------------------------|
B|-----------------------------------------------|
G|--------------------------5--------------------|
D|----5----------7----------5----------5---------|
A|----5----------7----------3----------5---------|
E|----3----------5---------------------3---------|

-And I can't believe, you'd even think, of being anyplace, anyplace but right here

e|-----------------------------------------------|
B|-----------------------------------------------|
G|--------------------------5----------7---------|
D|----5----------7----------5----------7---------|
A|----5----------7----------3----------5---------|
E|----3----------5-------------------------------|

-The grass may be greener in the end I swear, but you'll be wishing you were here if you 
there.

e|-----------------------|
B|-----------------------|
G|-------------7---------|
D|-------------7---------|
A|-------------5---------|
E|-----------------------|
-
You wish you were here, you wish you were here

-And if I could…

e|--------------------------------------|
B|--------------------------------------|
G|----5--------------------------7------|
D|----5-------------5------------7------|
A|----3-------------5------------5------|
E|------------------3-------------------|

-Make you wanna stay, just one more day, maybe everything would be okay, Come on, Come on

e|-------------------------------|
B|-------------------------------|
G|-----7777777777777\------------|
D|-----7777777777777\------------|
A|-----5555555555555\------------|
E|-------------------------------|

-Come onnnn

-It's all right…

(Guitar 1)

e|-----------------------------------------------|
B|-----------------------------------------------|
G|--------------------------5--------------------| x2
D|----5----------7----------5----------5---------|
A|----5----------7----------3----------5---------|
E|----3----------5---------------------3---------|


(Guitar 2)

e|--3--3--2h3--2h3--3--2h3------3--3--2h3--2h3--3--2h3------------------|
B|---------------------------5--------------------------5---------------|
G|----------------------------------------------------------------------|
D|----------------------------------------------------------------------|
A|----------------------------------------------------------------------|
E|----------------------------------------------------------------------|


e|--3--3--2h3--2h3--3--2h3------------------------|
B|---------------------------5--3-----------------|
G|------------------------------------------------|
D|------------------------------------------------|
A|------------------------------------------------|
E|------------------------------------------------|

e|--3--3--2h3--2h3--3--2h3------5--5--3h5-----5--5--3h5------------|
B|---------------------------5-------------5-------------3---------|
G|-----------------------------------------------------------------|
D|-----------------------------------------------------------------|
A|-----------------------------------------------------------------|
E|-----------------------------------------------------------------|


e|--8--8--8--8--8--8--8h7-------------------------|
B|-------------------------10--8------------------|
G|------------------------------------------------|
D|------------------------------------------------|
A|------------------------------------------------|
E|------------------------------------------------|

-…Here!
-It's all right here, yeah

Phew, that was a long one…Hope you guys like it!! =)


| /  slide up
| \  slide down
| h  hammer-on
| p  pull-off
| ~  vibrato
| +  harmonic
| x  Mute note
=============================================================================
Добавлено: 25.03.2012
Другие материалы по этой песне:
  • Аккорды и текст

Страница создана 25.03.2012
http://primanota.ru/hannah-montana/its-all-right-here-chords.htm
Привет, Гость.
Предлагаем пройти революционный курс по гитаре.
Подарок от PrimaNota.Ru, забирай!