PrimaNota.ru - самый крупный в мире бесплатный архив песенных текстов, аккордов, табулатур и нот


Hannah Georgas - Somebody - аккорды и текст, видео

Регистрация Запомнить меня
Войти через:  Facebook Google Twitter Vk Yandex Mail.ru

Hannah Georgas - Somebody - аккорды и текст, видео

Печатать
Просмотров: 133
Somebody
Hannah Georgas
Artist: Hannah Georgas
Album: Hannah Georgas (2012)
Song: Somebody

Official Webpage: http://www.hannahgeorgas.com/
Official YouTube Upload: http://www.youtube.com/watch?v=TrRWFwDhoCY



                    E
No, I never had the nerve to tell you, 
       B                   A
So I'm saying it now
               E
Every time you walk away, 
     B                     A
I am kicking myself
                          G
And I know you don't know what you do, 
         B                A
What you do to me, but it hurts like hell
                          G
And I know you don't know what you do, 
         B                A                 G            
What you do to me, but it hurts like hell

                 A
I just hope that someday, 
           D
Somebody's gonna break your heart
G                       B
Gonna break your heart
                A                        D
And then you'll finally see, yeah you're gonna feel
              G                                   B
What I always would have felt, would have felt

                    E
And you can just go on and say it, 
  B                        A   
I need to hear it, it'd be better for me
                       E                    B
At least I know what's stopping you and I'd hear the truth
      A
And I would believe
                G                 B            A     
Yeah then you'd see the light and finally come to my side
     G                       B            A            G
Yeah you'd see the light and finally come to my side

                 A
I just hope that someday, 
           D
Somebody's gonna break your heart
G                       B
Gonna break your heart
                A                        D
And then you'll finally see, yeah you're gonna feel
              G                                   B
What I always would have felt, would have felt
                          D                           G
And they'll tell you it's not you but they don't wanna ruin
                B                      G
What they know, what they know so well
                 D                       G
I just hope that you you're gonna finally feel
                 B                      G
What I've always, what I've always felt

E    B    A
E    B    A    G

                 A
I just hope that someday, 
                                   G                        B
Somebody's gonna break your heart, gonna break your heart
                A                        D
And then you'll finally see, yeah you're gonna feel
              G                                   B
What I always would have felt, would have felt
                          A                           D
And they'll tell you it's not you but they don't wanna ruin
                G                      B
What they know, what they know so well
                 A                       D
I just hope that you you're gonna finally feel
                 G                      B
What I've always, what I've always felt

D    G    B    G
Woah oh 
D    G    B    G
Woah oh 
D    G    B    G
Woah oh 
D    G    B    G
Oh woah oh
D

 
Chords

     A    B    D     E    G   
e|---------------------------------|
B|---------------------------------|
G|---------------------------------|
D|-------------------9-------------|
A|---7----9----12----7----5--------|
E|---5----7----10---------3--------|


Verse Lead

     E           B          A           E         B          A        G   
e|---------------------------------|----------------------------------------|
B|---------------------------------|----------------------------------------|
G|---9--------9--7-------7--6------|----9------9--7-------7--6-----6--4-----|
D|---------------------------------|----------------------------------------|
A|---------------------------------|----------------------------------------|
E|---------------------------------|----------------------------------------|


End Lead 

e|-------------------------------------------|-------------------------------------------|
B|-------------------------------------------|-------------------------------------------|
G|---14p11--14p11--9----14p11--14p11--9s11---|---14p11--14p11--9----14p11--14p11--9s11---|
D|-------------------------------------------|-------------------------------------------|
A|-------------------------------------------|-------------------------------------------|
E|-------------------------------------------|-------------------------------------------|
     D                  G                        B                  G
     Whoa               oh
Добавлено: 11.10.2013
Другие материалы по этой песне:
  • Аккорды и текст

Страница создана 11.10.2013
http://primanota.ru/hannah-georgas/somebody-chords.htm
Привет, Гость.
Предлагаем пройти революционный курс по гитаре.
Подарок от PrimaNota.Ru, забирай!