PrimaNota.ru - самый крупный в мире бесплатный архив песенных текстов, аккордов, табулатур и нот


Hanna Pakarinen - Leave Me Alone - таба, видео

Регистрация Запомнить меня
Войти через:  Facebook Google Twitter Vk Yandex Mail.ru

Hanna Pakarinen - Leave Me Alone - таба, видео

Печатать
Просмотров: 139
Уроки эстрадного вокала в Санкт-Петербурге
+--------------------------------------------------------------------------+
| This file is the author's own work and represents their interpretation   |
| of the song. You may only use this file for private study, scholarship,  |
| or research.                                                             |
+--------------------------------------------------------------------------+

Artist: Hanna Pakarinen - Leave Me Alone
Album: Eurovision Song Contest 2007
Tuning: DADGBe (Drop D)
Tabbed by: Kasper K.

This is Finland's song for the Eurovision Song Contest 2007. I thought it was pretty 
so i made a tab. ;). Hope you like it.

Look at bottom for order to play the song, and listen to song for rhytm.

Artist-info: http://www.hanna-pakarinen.com

\ = Slide down
/ = Slide up
. = palm mute
~ = let ring

[INTRO]
e|------------------------------|
B|------------------------------|
G|------------------------------|
D|-2/44-2/4-xxx-2/44-2/4/55-xxx-|
A|-2/44-2/4-xxx-2/44-2/4/55-xxx-|
D|-2/44-2/4-xxx-2/44-2/4/55-xxx-|

e|------------------------------|
B|------------------------------|
G|------------------------------|
D|-2/44-2/4-xxx-2/44-2/4/55--4~-|
A|-2/44-2/4-xxx-2/44-2/4/55--4~-|
D|-2/44-2/4-xxx-2/44-2/4/55--4~-|

[BACKGROUND RIFF]
e|-7-----9---------|
B|---9-9---9-9-10~-|
G|-----------------|
D|-----------------|
A|-----------------|
D|-----------------|
(You hear this in the background, several times.)

[PRE-CHORUS]
e|-------------|
B|-------------|
G|-6~-6-7~-777-|
D|-6~-6-7~-777-|
A|-4~-4-5~-555-|
D|-------------|

[CHORUS]
e|------------------------|
B|------------------------|
G|--------------6/777-----|
D|-2/44-2/4-777-6/777-222-|
A|-2/44-2/4-777-4/555-222-|
D|-2/44-2/4-777-------222-|

e|------------------------|
B|------------------------|
G|--------------6/777-----|
D|-2/44-2/4-777-6/777-999-|
A|-2/44-2/4-777-4/555-999-|
D|-2/44-2/4-777-------999-|

e|------------------------|
B|------------------------|
G|--------------6/777-----|
D|-2/44-2/4-777-6/777-222-|
A|-2/44-2/4-777-4/555-222-|
D|-2/44-2/4-777-------222-|

e|-----------------------------------------|
B|-----------------------------------------|
G|-6/777-xxx-6/777-xxx-3/444-xxx-3/444-xxx-|
D|-6/777-xxx-6/777-xxx-3/444-xxx-3/444-xxx-|
A|-4/555-xxx-4/555-xxx-1/222-xxx-1/222-xxx-|
D|-----------------------------------------|

[P.M. RIFF]
e|------------------------|
B|------------------------|
G|-----------7777-777-444-|
D|-4444-7777-7777-777-444-|
A|-4444-7777-5555-555-222-|
D|-4444-7777--------------|
   .... .... .... ... ...

[SOLO PART]
e|-----------------------------------------|
B|-----------------------------------------|
G|-13--------------------------------------|
D|----16-14-13-14-13-11--------------------|
A|----------------------14-12-11-----------|
D|-----------------------------------------|

[END PART]
e|------------------------|
B|------------------------|
G|--------------6/777-----|
D|-2/44-2/4-777-6/777-222-|
A|-2/44-2/4-777-4/555-222-|
D|-2/44-2/4-777-------222-|

e|-------------------------------|
B|-------------------------------|
G|--------------6/777-888/101010-|
D|-2/44-2/4-777-6/777-xxx/101010-|
A|-2/44-2/4-777-4/555-666/-9-9-9-|
D|-2/44-2/4-777------------------|

e|------------------------|
B|------------------------|
G|--------------6/777-----|
D|-2/44-2/4-777-6/777-222-|
A|-2/44-2/4-777-4/555-222-|
D|-2/44-2/4-777-------222-|

e|-----------------------------------------|
B|-----------------------------------------|
G|-6/777-xxx-6/777-xxx-3/444-xxx-3/444-xxx-|
D|-6/777-xxx-6/777-xxx-3/444-xxx-3/444-xxx-|
A|-4/555-xxx-4/555-xxx-1/222-xxx-1/222-xxx-|
D|-----------------------------------------|
(This is basically the chorus, with a few changes.)

e|--------------------------|
B|--------------------------|
G|--------------------------|
D|-2/44-2/4-xxx-2/44-2/4/55-|
A|-2/44-2/4-xxx-2/44-2/4/55-|
D|-2/44-2/4-xxx-2/44-2/4/55-|
(Same as first part of the intro.)

+----------------------+
Order to play the song:

1: Intro
2: Background riff
3: Pre-chorus
4: Chorus
5: 2nd part of intro
6: Background riff
7: P.M. riff
8: Pre-chorus
9: Chorus
10: Solo part
11: Pre-chorus
12: End part
+----------------------+
Добавлено: 19.05.2012
Другие материалы по этой песне:

Страница создана 22.03.2012
http://primanota.ru/hanna-pakarinen/leave-me-alone-chords.htm
Привет, Гость.
Предлагаем пройти революционный курс по гитаре.
Подарок от PrimaNota.Ru, забирай!