PrimaNota.ru - самый крупный в мире бесплатный архив песенных текстов, аккордов, табулатур и нот


Hank, Marvin - Windmills Of Your Mind - таба, видео

Регистрация Запомнить меня
Войти через:  Facebook Google Twitter Vk Yandex Mail.ru

Hank, Marvin - Windmills Of Your Mind - таба, видео

Печатать
Просмотров: 161
Авторы музыки: Michel Legrand
Авторы текста: Marilyn Bergman, Alan Bergman
Windmills Of Your Mind by Hank Marvin (Guitar player from The Shadows)

From the album "Marvin At The Movies"

 

Chords and solo transcribed by Greg McCain (Feb 2005)

 

This file is the authors' own work and represents their interpretation of

the song.

 

 

Am                  Dm/B                 E7/B             

    x 0 2 2 1 0          x 2 x 2 3 1          x 2 2 1 3 0        

 

Dm                  G7                  Cmaj7           

x x 0 2 3 1          3 5 3 4 0 3          x 3 5 4 5 0        

 

E7                   A°7              E7(type 2)         

0 2 2 1 3 0          x 0 1 2 1 2          0 2 0 1 0 0        

 

B7                  Em                  Fmaj7

x 2 1 2 0 2          0 2 2 0 0 0          x x 3 2 1 0

 

          A7                   C7

      x 0 2 0 2 0          x 3 5 3 5 3

 

 

Verse:

| Am    | Dm/B | E7/B | Am    |    

| A7    | Dm   | G7   | Cmaj7 | 

| Fmaj7 | Dm/B | E7   | A°7   | 

| E7 (2)| Am   |

 

Chorus:

| Am    | Dm   | G7   | Cmaj7 | 

| C7    | Fmaj7| B7   | Em    | 

| A7    | Dm   | G7   | Cmaj7 | 

| Fmaj7 | Dm/B | E7   | Am    |

 

Melody:

|----------------------------------|

|----------------------------------|

|-------------2-4-4-5-5-5-4-2-4----|

|-2-2-3-3-2-2----------------------|

|----------------------------------|

|----------------------------------|

 

 

|-----------------|-------------------|

|-----------------|-------------------|

|-------------4-4-|-----/7-7-5-4-5----|

|-2-2-3-3-2-2-----|-2-2---------------|

|-----------------|-------------------|

|-----------------|-------------------|

 

 

|-------------0----------------------|

|---------------/5-----/8-8-6-5-6----|

|-2-2-4-4-2-2------2-2---------------|

|------------------------------------|

|------------------------------------|

|------------------------------------|

 

 

|-------------------|----------------|

|-------------------|---6-6-5---5----|

|-------------7-7---|---------7------|

|-5-5-7-7-5-5-----5-|-5--------------|

|-------------------|----------------|

|-------------------|----------------|

 

 

|----------------------------------|

|---------------------5-5-3---3----|

|-------------5-5-----------5------|

|-3-3-5-5-3-3-----3-3--------------|

|----------------------------------|

|----------------------------------|

 

 

|-----------------|------------------|

|-----------------|-----3-3-1-0-1----|

|-------------4-4-|------------------|

|-2-2-3-3-2-2-----|-2-2--------------|

|-----------------|------------------|

|-----------------|------------------|

 

 

|--------------------------------|

|-----1-1-0---0------------------|

|-----------2-------4-4-2-1-2----|

|-1-1-----------2-2--------------|

|--------------------------------|

|--------------------------------|

 

 

Chorus:

|-------------5-5-7-7-8-8-8-7-8-10----|

|-5-5-6-6-5-5-------------------------|

|-------------------------------------|

|-------------------------------------|

|-------------------------------------|

|-------------------------------------|

 

 

|------------------10-|-10-----7-7-8-10-/12----|

|-8-8-10-10-10-8-8----|----8-8-----------------|

|---------------------|------------------------|

|---------------------|------------------------|

|---------------------|------------------------|

|---------------------|------------------------|

 

 

|-------------------15-15------------------------------|

|-13-13-15-15-13-13-------13-13-17b17.5-17-17-15-17----|

|------------------------------------------------------|

|------------------------------------------------------|

|------------------------------------------------------|

|------------------------------------------------------|

 

 

|----------------------14-14-------/15-15-13-12-13----|

|-12-12-13-13-13-12-12-------12-12--------------------|

|-----------------------------------------------------|

|-----------------------------------------------------|

|-----------------------------------------------------|

|-----------------------------------------------------|

 

 

|----------------------------------------------------|

|-------17-17-17-15-15-17-17-------14-14-15-17-18----|

|-16-16----------------------14-14-------------------|

|----------------------------------------------------|

|----------------------------------------------------|

|----------------------------------------------------|

 

 

|----------------------------------------------------|

|----------------------15-15-------12-12-13-15-17----|

|-12-12-14-14-14-12-12-------12-12-------------------|

|----------------------------------------------------|

|----------------------------------------------------|

|----------------------------------------------------|

 

 

|----------------------------------12b12.5-12-10-13-10----|

|----------------------13-13------------------------------|

|-10-10-12-12-12-10-10-------10-10------------------------|

|---------------------------------------------------------|

|---------------------------------------------------------|

|---------------------------------------------------------|

 

 

|-10-13-13-12-12-10-10-13-13-12-12-10-10-9b9.5-10-10----|

|-------------------------------------------------------|

|-------------------------------------------------------|

|-------------------------------------------------------|

|-------------------------------------------------------|

|-------------------------------------------------------|

 

 

 

And here is Hank's solo:

 

 

|-12----------10----------8--------------------------------|

|----13----------12---------10------------5-5-5-6----------|

|-------14----------12---------10-----------------7--------|

|----------14----------12---------10-9-7------------7------|

|-----------------------------------------------------8----|

|----------------------------------------------------------|

 

 

|-----------------------7-10/-13-12-10h12p10----10-|

|---------------------9----------------------13----|

|-------------7-/10-9------------------------------|

|---------6-9--------------------------------------|

|-/10-8-7------------------------------------------|

|--------------------------------------------------|

 

|-------------------------------------------|

|-13/-15-13-12-13-12h13p12------------------|

|--------------------------14-13b13.5-14----|

|-------------------------------------------|

|-------------------------------------------|

|-------------------------------------------|

 

|-------------12-15-12---------------------------------------------12---|

|----12-13-14----------14----12---------------------------------10----10|

|-14----------------------14----12-------14-12-10h12p10-9-10-12---------|

|----------------------------------14-12--------------------------------|

|-----------------------------------------------------------------------|

|-----------------------------------------------------------------------|

 

 

|-10-9p8p7-8-9-10-7-----------------------------------------|

|-------------------8-----------------8-6/-8-6-5-3-1-0-1----|

|---------------------10-7----------------------------------|

|--------------------------9----7-8-9-----------------------|

|----------------------------10-----------------------------|

|-----------------------------------------------------------|

 

 

|--------------------------------------------------12------10----|

|------1-----3-----5-----6-----8-------10----12-10----10-9-------|

|-/2-2---4-4---5-5---7-7---9-9---10-10----12---------------------|

|----------------------------------------------------------------|

|----------------------------------------------------------------|

|----------------------------------------------------------------|

 

 

|-12------------------------------------------|

|----15-12----------------13-13b15-12---------|

|----------13----------14-------------13------|

|-------------14-12-13-------------------14-12|

|---------------------------------------------|

|---------------------------------------------|

 

|-------------0-1p0-2p0-3p0-4p0-4b6---4b6-----|

|-1-0---0-1-3-----------------------5-----6---|

|-----2---------------------------------------|

|---------------------------------------------|

|---------------------------------------------|

|---------------------------------------------|

 

|---------7-10-7---------------5----|

|-------9--------9------------------|

|-7-8-9------------9-7-5h7p5--------|

|----------------------------7------|

|-----------------------------------|

|-----------------------------------|

 

 

|-12-9----------------------------------------------------|

|------10----------------------------------------10-------|

|---------9----9------------9-----10----12-10-------12----|

|-----------11------9-10-11---/12----12-------12----------|

|----------------12---------------------------------------|

|---------------------------------------------------------|

 

 

|-13p12p11p10-----------------------------------------------------------|

|-------------13-12-10----10--------------------------------------------|

|----------------------12----10-11-12-11-10-----------------------------|

|-------------------------------------------12-10----/12-10-------------|

|-------------------------------------------------10--------10-/12-10---|

|---------------------------------------------------------------------12|

 

 

|------------------------------------------------------------|

|-----------------------------------10-----------------------|

|-----------------9-10-9----9-10-12----12-10-9-10-9-12-12----|

|---------9-10-12--------12----------------------------------|

|-8-10-12----------------------------------------------------|

|------------------------------------------------------------|

 

 

|----------------------------------------------------------------7----|

|---------------12-------------------------------------------8-9------|

|-------9-9-9-9----9-10-9-8-8-8-8-11-8-7-8-7-----------7-8-9----------|

|-10-12--------------------------------------9-6---6-9----------------|

|------------------------------------------------7--------------------|

|---------------------------------------------------------------------|

 

 

|------------------------------------------|

|------------------------------------------|

|-7b9r5-7-5---5----------------------------|

|-----------7---7-5-7-5---5----------------|

|-----------------------7---7-5-7-5---0----|

|-----------------------------------7------|

 

 

 

********************************************************************************
* Generated using Power Tab Editor by Brad Larsen -
http://powertab.guitarnetwork.org *

********************************************************************************
     
Добавлено: 22.11.2013
Другие материалы по этой песне:
  • Аккорды и текст

Страница создана 22.11.2013
http://primanota.ru/hank-marvin/windmills-of-your-mind-chords.htm
Привет, Гость.
Предлагаем пройти революционный курс по гитаре.
Подарок от PrimaNota.Ru, забирай!