PrimaNota.ru - самый крупный в мире бесплатный архив песенных текстов, аккордов, табулатур и нот


Hank, Marvin - Eastenders Howards Way Theme - таба, видео

Регистрация Запомнить меня
Войти через:  Facebook Google Twitter Vk Yandex Mail.ru

Hank, Marvin - Eastenders Howards Way Theme - таба, видео

Печатать
Просмотров: 115
Уроки эстрадного вокала в Санкт-Петербурге
Songs name:The Themes from "Eastenders" & "Howards Way"
Artist:Hank Marwin
Album: Hank Marwin/The Shadows The singles collection the '80s and '90s
Writer:May/Osbourne

Made By Jon Martin Granås (jonmgranaas@hotmail.com)
This is my Work and it's almost perfect.







E-----------------------------------------------------------------------
B-----------------------------------------------------------------------
G--------7-9-11-7--7----------------9------------7-9-11-7-7-------------
D-7-9-11-------------11-9-7-7-----7---7-9-7-9-11------------11-9-7-7--11
A-----------------------------7-7------------------------------------7--
E-----------------------------------------------------------------------

E--------------------------------------------
B--------------------------------------------
G-7-9--------------9---9-9-7-7-------7-9-----
D-----11-9---6-7-9---7---------11-11-----11-9
A----------7---------------------------------
E--------------------------------------------

E-----------------------------------------------------------------------
B-----------------------------------------------------------------------
G--------7-9-11-7-7---------------9-----------7-9-11-7-7--------------7-9-11-9-7
D-7-9-11------------11-9-7-7----7---7-9-7-9-11-----------11-9-7-7---11-
A----------------------------77------------------------------------7----
E-----------------------------------------------------------------------

E-11-7----------9-11-7-----------------------------------------7-9-11-7
B------7-5-7-11--------7-5-7-11-5-5---------9----------5-7-9-11---------7-5-7-11
G----------------------------------8-6-8-6----6-6--6-8------------------
D-----------------------------------------------------------------------
A-----------------------------------------------------------------------
E-----------------------------------------------------------------------

E-9-11-7------------------7-9-7-----9-7----7
B--------7-5-7-11-5-----7-------5-9-----11--
G-------------------8-8---------------------
D-------------------------------------------
A-------------------------------------------
E-------------------------------------------

E-11-14-12-11-9-7-9-11-7--7-9-11-7--------------16-14-------14--------
B----------------------------------9-9-11-12-11-------16-14----12-----
G-----------------------------------------------------------------8-10
D---------------------------------------------------------------------
A---------------------------------------------------------------------
E---------------------------------------------------------------------

E-----------------------------------------------
B-8-9-10-10-------------------------------------
G------------6-8-10-11-13-13-11-11-15-13-13-----
D-----------------------------------------------
A-----------------------------------------------
E-----------------------------------------------


E--------------------------------------------------18-16-14-13---
B-18-19-21-21-19-18--------------------------------------------14
G-------------------20-18-15-13-15-13-11-12-11-13----------------
D----------------------------------------------------------------
A----------------------------------------------------------------
E----------------------------------------------------------------

E-------------------------------------------------------
B--------------------------5-7-9-5-5---------------7----
G-13-15-11-----------4-6-8-----------8-6-4-4-----4---4-6
D---------15-13-11--------------------------4-4--------
A-------------------------------------------------------
E------------------------------------------------------



E--------------------------------------------------------------------
B-------5-7-9-5-5-------------5-7-------------7---7-7-5-5-----5-7----
G-4-6-8-----------8-6-4-4---8-----8-6---3-4-6---4---------8-8-----8-6
D-------------------------4-----------4------------------------------
A--------------------------------------------------------------------
E--------------------------------------------------------------------


E-----------------------------------------------
B-------5-7-9-5-5---5-------------5-7-----4-----
G-4-6-8-----------8---8-6-4-4---8-----8-6-------
D-----------------------------4-----------------
A-----------------------------------------------
E-----------------------------------------------
     
Добавлено: 30.08.2013
Вам также может быть интересно:
Другие материалы по этой песне:
  • Аккорды и текст

Страница создана 30.08.2013
http://primanota.ru/hank-marvin/eastenders-howards-way-theme-chords.htm
Привет, Гость.
Предлагаем пройти революционный курс по гитаре.
Подарок от PrimaNota.Ru, забирай!