PrimaNota.ru - самый крупный в мире бесплатный архив песенных текстов, аккордов, табулатур и нот


Hangmas - Luna - бас-таба, видео

Регистрация Запомнить меня
Войти через:  Facebook Google Twitter Vk Yandex Mail.ru

Hangmas - Luna - бас-таба, видео

Печатать
Просмотров: 59
http://hangmas.hu/

Tuning: EADG

Hangmás - Luna


Intro

      E  E  E  E  E  E  E  E     E  E  E  E  E  E  E  E   
G||---------------------------|--------------------------|
D||*--------------------------|--------------------------|
A||------------------------6--|--L--6--6--6--6--6--6--6--|
E||*--3--3--3--3--6--6--6-----|--------------------------|
B||---------------------------|--------------------------|


  E  E  E  E  E  E  E   E     E   E   E   E   E   E  E   E   
---------------------------|--------------------------------|
---------------------------|--------------------------------|
--3--3--3--3--8--8--8--10--|--L--10--10--10--10--10--8------|
---------------------------|----------------------------10--|
---------------------------|--------------------------------|


  E  E  E  E  E  E  E  E     E  E  E  E  E  E  E  E   
--------------------------|--------------------------|
--------------------------|--------------------------|
-----------------------6--|--L--6--6--6--6--6--6--6--|
--3--3--3--3--6--6--6-----|--------------------------|
--------------------------|--------------------------|


  E  E  E  E  E  E  E   E     E   E   E   E  E   E  E   E   
---------------------------|-------------------------------|
---------------------------|-----------------8------8--10--|
--3--3--3--3--8--8--8--10--|--L--10--10--10-----10---------|
---------------------------|-------------------------------|
---------------------------|-------------------------------|


  E  E  E  E  E  E  E  E     E  E  E  E  E  E  E  E   
--------------------------|--------------------------|
--------------------------|--------------------------|
-----------------------6--|--L--6--6--6--6--6--6--6--|
--3--3--3--3--6--6--6-----|--------------------------|
--------------------------|--------------------------|


  E  E  E  E  E  E  E   E     E   E   E   E   E   E  E   E   
---------------------------|--------------------------------|
---------------------------|--------------------------------|
--3--3--3--3--8--8--8--10--|--L--10--10--10--10--10--8------|
---------------------------|----------------------------10--|
---------------------------|--------------------------------|


  E  E  E  E  E  E  E  E     E  E  E  E  E  E  E  E   
--------------------------|--------------------------|
--------------------------|--------------------------|
-----------------------6--|--L--6--6--6--6--6--6--6--|
--3--3--3--3--6--6--6-----|--------------------------|
--------------------------|--------------------------|


  E  E  E  E  E  E  E   E     E   E   E   E   E   E   E   E   
---------------------------|---------------------------------|
---------------------------|---------------------------------|
--3--3--3--3--8--8--8--10--|--L--10--10--10--10--10--10--10--|
---------------------------|---------------------------------|
---------------------------|---------------------------------|

Bridge

  Q    E  E  E  E  Q       H.               Q     E  E  E  E   Q     
------------------------|---------------|---------------------------|
-------5----------------|---------------|--------13-----------------|
------------------------|---------------|---------------8-----10----|
--3----------6-----8----|--L------------|--11-----------------------|
------------------------|---------------|---------------------------|


  H            E   E  E   E     Q    E  E  E  E  Q       H.            
-----------|-----------------|------------------------|---------------|
-----------|-----------------|-------5----------------|---------------|
--L--------|--10--10--8------|------------------------|---------------|
-----------|-------------10--|--3----------6-----8----|--L------------|
-----------|-----------------|------------------------|---------------|


   Q     E  E  E  E   Q       H           E   E  E   E   
---------------------------|-----------|----------------|
--------13-----------------|-----------|--8------8--10--|
---------------8-----10----|--L--------|-----10---------|
--11-----------------------|-----------|----------------|
---------------------------|-----------|----------------|

Intro

  E  E  E  E  E  E  E  E     E  E  E  E  E  E  E  E   
--------------------------|--------------------------|
--------------------------|--------------------------|
-----------------------6--|--L--6--6--6--6--6--6--6--|
--3--3--3--3--6--6--6-----|--------------------------|
--------------------------|--------------------------|


  E  E  E  E  E  E  E   E     E   E   E   E   E  E  E   E   
---------------------------|-------------------------------|
---------------------------|-------------------------------|
--3--3--3--3--8--8--8--10--|--L--10--10--10--10--8--8------|
---------------------------|---------------------------10--|
---------------------------|-------------------------------|


  E  E  E  E  E  E  E  E     E  E  E  E  E  E  E  E   
--------------------------|--------------------------|
--------------------------|--------------------------|
-----------------------6--|--L--6--6--6--6--6--6--6--|
--3--3--3--3--6--6--6-----|--------------------------|
--------------------------|--------------------------|


  E  E  E  E  E  E  E   E     E   E   E   E   E   E   E   E   
---------------------------|---------------------------------|
---------------------------|---------------------------------|
--3--3--3--3--8--8--8--10--|--L--10--10--10--10--10--10--10--|
---------------------------|---------------------------------|
---------------------------|---------------------------------|

Verse

  E  E  E  E  E  E  E  E     E  E  E  E  E  E  E  E   
--------------------------|--------------------------|
--------------------------|--------------------------|
--------------------------|--3--3--3--3--3--3--3--3--|
--1--1--1--1--1--1--1--1--|--------------------------|
--------------------------|--------------------------|


  E  E  E  E  E  E  E  E     E  E  E  E  E  E  E  E   
--------------------------|--------------------------|
--------------------------|--------------------------|
--1--1--1--1--1--1--1--1--|--------------------------|
--------------------------|--3--3--3--3--3--3--3--3--|
--------------------------|--------------------------|


  E  E  E  E  E  E  E  E     E  E  E  E  E  E  E  E   
--------------------------|--------------------------|
--------------------------|--------------------------|
--------------------------|--3--3--3--3--3--3--3--3--|
--1--1--1--1--1--1--1--1--|--------------------------|
--------------------------|--------------------------|


  E  E  E  E  E  E  E  E      E   E   E   E   E  E   E   E   
--------------------------|---------------------------------|
--------------------------|----------------------8----------|
--1--1--1--1--1--1--1--1--|--10--10--10--10--10-----10--10--|
--------------------------|---------------------------------|
--------------------------|---------------------------------|


  E  E  E  E  E  E   E  E     E  E  E  E  E  E  E  E   
---------------------------|--------------------------|
---------------------------|--------------------------|
--8--8--8--8--8--8--10--8--|--3--3--3--3--3--3--3--3--|
---------------------------|--------------------------|
---------------------------|--------------------------|


  E  E  E  E  E  E  E  E     E  E  E  E  E  E  E  E   
--------------------------|--------------------------|
--------------------------|--------------------------|
--1--1--1--1--1--1--1--1--|--------------------------|
--------------------------|--3--3--3--3--3--3--3--3--|
--------------------------|--------------------------|


  E  E  E  E  E  E  E  E     E  E  E  E  E  E  E  E   
--------------------------|--------------------------|
--------------------------|--------------------------|
--------------------------|--3--3--3--3--3--3--3--3--|
--1--1--1--1--1--1--1--1--|--------------------------|
--------------------------|--------------------------|


  E  E  E  E  E  E  E  E     
---------------------------||
--------------------------*||
--6--L--L--L--L--L---------||
--------------------6--5--*||
---------------------------||




Duration Legend
---------------
W - whole
H - half
Q - quarter
E - 8th
S - 16th
T - 32nd
X - 64th
. - note dotted
|-n-|  - n-tuplets


Tablature Legend
----------------
L - tied note

Добавлено: 04.11.2013
Другие материалы по этой песне:
  • Аккорды и текст

Страница создана 04.11.2013
http://primanota.ru/hangmas/luna-chords.htm
Привет, Гость.
Предлагаем пройти революционный курс по гитаре.
Подарок от PrimaNota.Ru, забирай!