PrimaNota.ru - самый крупный в мире бесплатный архив песенных текстов, аккордов, табулатур и нот


Hangmans Joke - My Not-so-famous Sayings - таба, видео

Регистрация Запомнить меня
Войти через:  Facebook Google Twitter Vk Yandex Mail.ru

Hangmans Joke - My Not-so-famous Sayings - таба, видео

Печатать
Просмотров: 110
Tuning: Drop D
PM= Palm Mute
Tabbed by: Mike
~: Fade or pause


[Introduction (Riff from, “The Crow”)]


e|---------------5----------------------------------|
B|---12~-10-8-7~--5~--------------------------------|
G|--------------------------------------------------|
D|--------------------------------------------------|
A|--------------------------------------------------|
E|--------------------------------------------------|
      Light Distortion

        [Verse]                                           x2
e|--------------------------------------------------|
B|--------------------------------------------------|
G|--------------------------------------------------|
D|---2-x16--5-x16--0-x16--8-x10--10-12--------------|
A|---2------5------0------8------10-12--------------|
E|---2------5------0------8------10-12--------------|
       PM     PM     PM     PM
       HEAVY DISTORTION

         [Chorus]
e|--------------------------------------------------| x2
B|--------------------------------------------------|
G|--------------------------------------------------|
D|---7-x8--0-x16--2-x16--5-x8--3-x8-----------------|
A|---7-----0------2------5-----3--------------------|
E|---7-----0------2------5-----3--------------------|
     Heavy Distortion


After you have finished playing the chorus^ 2 times, play the verse twice again and play 
chorus twice again. Then go to the Bridge/Guitar Solo


      [Bridge/Solo]
e|--------------------------------------------------|
B|--------------------------------------------------|
G|---2-x16--10-x16--5-x16--9-x16--------------------|
D|---2------10------5------9------10-x5--12-x3------|
A|---0------8-------3------7------10-----12---------|
E|--------------------------------10-----12---------|
                                   |      |
                                  Repeat this 4 times and continue to
                                                The solo!

e|---0-0-3-0-0-0-5-0-0-0-5-0-0-0-7-0-0-0-8-0-0-0----|
B|--------------------------------------------------|
G|--------------------------------------------------|
D|--------------------------------------------------|
A|--------------------------------------------------|
E|--------------------------------------------------|

e|---7-0-0-0-5-0-3-0~-------------------------------|
B|--------------------------------------------------|
G|--------------------------------------------------|
D|--------------------------------------------------|
A|--------------------------------------------------|
E|--------------------------------------------------|

Now, play the verse twice but, the first time play it clean with no distortion and then 
second time distort it, and finally, play the chorus 2 times. Then play the outro;

e|--------------------------------------------------|
B|--------------------------------------------------|
G|--------------------------------------------------|
D|---0-0---0-0-0---0-0-0---0-0-~--------------------|
A|---0-0---0-0-0---0-0-0---0-0-~--------------------|
E|---0-0---0-0-0---0-0-0---0-0-~--------------------|
                                 Let it Fade

      [Outro solo]
e|---------------5----------------------------------|
B|---12~-10-8-7~---5~-------------------------------|
G|--------------------------------------------------|
D|--------------------------------------------------|
A|--------------------------------------------------|
E|--------------------------------------------------|
           Guitar all alone. Nothing else playing
Добавлено: 28.02.2012
Другие материалы по этой песне:
  • Аккорды и текст

Страница создана 28.02.2012
http://primanota.ru/hangmans-joke/my-not-so-famous-sayings-chords.htm
Привет, Гость.
Предлагаем пройти революционный курс по гитаре.
Подарок от PrimaNota.Ru, забирай!