PrimaNota.ru - самый крупный в мире бесплатный архив песенных текстов, аккордов, табулатур и нот


Hangar - Dreaming Of Black Waves - таба, видео

Регистрация Запомнить меня
Войти через:  Facebook Google Twitter Vk Yandex Mail.ru

Hangar - Dreaming Of Black Waves - таба, видео

Печатать
Просмотров: 108
Dreaming of black waves

(guitarra solista)
1.-----------------------------------------------------------|
2.-----------------------------------------------------------|
3.-10(11)(10)-8-10-11-10(11)(10)-8-------10(11)(10)-8-10-11--|
4.---------------------------------11-11---------------------|
5.-----------------------------------------------------------|
6.-----------------------------------------------------------|

1.-----------------------------------------------------------|
2.---------------------------------------11------------------|
3.-10(11)(10)-8-10-------10(11)(10)-8-10---------------------|
4.-----------------11-11-------------------------------------|
5.-----------------------------------------------------------|
6.-----------------------------------------------------------|

(guitarra ritmica)
1.-------------------------------------------------------------|
2.-------------------------------------------------------------|
3.-------------------------------------------------------------|
4.-----------------4-4---4-4-4---4-6-6---6-6-6---6-------------|
5.-4-4---4-4-4---4-2-2---2-2-2---2-4-4---4-4-4---4-6-6---6-6-6-|
6.-2-2---2-2-2---2---------------------------------4-4---4-4-4-|

1.-----------------|
2.-----------------|
3.-----------------|
4.-4-4-------------|
5.-2-2---1-2-1-4-4-|
6.-------------2-2-|


1.---------------------------------------------------------------|
2.---------------------------------------------------------------|
3.---------------------------------------------------------------|
4.---4-4---4-4-4---4-6-6---6-6-6---6---------------4-4---------4-|
5.-4-2-2---2-2-2---2-4-4---4-4-4---4-6-6---6-6-6---2-2---1-2-1-2-|
6.-2---------------------------------4-4---4-4-4-----------------|

(los acordes no van colocados exactamente en su lugar)

la#       fa#
I am the one

Who bring you back to life
La#
No matter what I felt
Fa#
Walking on the water at night
Do#          si
Since I believe
        Fa#              do#
In the lightness of your soul

There is no turning back
Sol#     si      fa#     do#
I will take you once again

To keep the balance of your faith
Sol#       si            fa#             do#
I see light inside the darkness of your eyes
La#               fa#
When I saw you alone

Dreaming of black waves
La#
I found the one
Fa#
I would like to see everyday
Do#          si               fa#          do#
Since I believe in the lightness of your soul
There is no turning back
Do#     si       fa#    do#
I will take you once again

To keep the balance of your faith
Sol#        si            fa#            do#
I see light inside the darkness of your eyes

1.---------|
2.---------|
3.---------|
4.---------|
5.-2-6-2---|
6.-------4-|
Do#     si       fa#    do#
I will take you once again

To keep the balance of your faith
Sol#        si            fa#            do#
I see light inside the darkness of your eyes
1.----------------------------------------------------------------|
2.----------------------------------------------------------------|
3.-11-10(11)(10)-8-------10(11)(10)-8-10-11-10(11)(10)-8-10-------|
4.-----------------11-11------------------------------------11-11-|
5.----------------------------------------------------------------|
6.----------------------------------------------------------------|

1.-----------------------------------------|
2.-----------------11----------------------|
3.-10(11)(10)-8-10-------------------------|
4.-----------------------------------------|
5.-----------------------------------------|
6.-----------------------------------------|


Do#              sol#
Everyone has a secret life
Fa#
Floating among your dreams
Do#                sol#
You are a miracle in my life
      Re#
Always keeping everything inside

Do#     si       fa#    do#
I will take you once again

To keep the balance of your faith
Sol#        si            fa#            do#
I see light inside the darkness of your eyes

1.---------|
2.---------|
3.---------|
4.---------|
5.-2-6-2---|
6.-------4-|

Do#     si       fa#    do#
I will take you once again

To keep the balance of your faith
Sol#        si            fa#            do#
I see light inside the darkness of your eyes






          (En la estrofa final se repite esta secuencia)
                            Fa#-si-do#-sol#


I will take you once again


To keep the balance of your faith


I see light inside the darkness of your eyes





                                      perchintabs.blogspot.com
Добавлено: 07.07.2012
Другие материалы по этой песне:
  • Аккорды и текст

Страница создана 07.07.2012
http://primanota.ru/hangar/dreaming-of-black-waves-chords.htm
Привет, Гость.
Предлагаем пройти революционный курс по гитаре.
Подарок от PrimaNota.Ru, забирай!