PrimaNota.ru - самый крупный в мире бесплатный архив песенных текстов, аккордов, табулатур и нот


Hang The Bastard - Raw Sorcery - бас-таба, видео

Регистрация Запомнить меня
Войти через:  Facebook Google Twitter Vk Yandex Mail.ru

Hang The Bastard - Raw Sorcery - бас-таба, видео

Печатать
Просмотров: 66
HANG THE BASTARD - RAW SORCERY

 E|-----------------------|
 B|-----------------------|
Gb|-----------------------| 
Db|-0---2--3--5--3--2--0--|

 E|---------------------------------------------|
 B|---------------------------------------------|
Gb|-----------------------------5-5-5-5-5-5-5-5-| 
Db|-0---2--3--5--3--2--0------------------------|

 E|---------------------------------------------------------|
 B|---------------------------------------------------------|
Gb|------------------------------------7-7-7-----6-6-6------| x4 
Db|-0-0-0-0-0-0-0-2--3--5--3--2--0-0-0-------8-8--------7-7-|

 E|--------------------------------------------------------------------|
 B|--------------------------------------------------------------------|
Gb|---------------------3-2--------------------7-7-7-------6-6-6-------| 1,3
Db|-0-0-0-0-0-0-0-0-0-0-----1--0-0-0-0-0-0-0-0-------8-8-8-------7-7-7-|

 E|-----------------------------------------------------------------|
 B|-----------------------------------------------------------------|
Gb|--------------------------------------------7tr10-6tr9-5tr8-4tr7-| 2,4
Db|-0-0-0-0-0-0-0-0-0-0-8-7-1--0-0-0-0-0-0-0-0----------------------|

repeat all of above

Guitar for 1.5 bars

 E|----------|
 B|----------|
Gb|----------| 
Db|-5--3--1--|

 E|--------------------------------------------------|
 B|--------------------------------------------------|
Gb|-------7-5-------------------------7-5------------| x4 
Db|-0-0-0-----6-0-0-0-0-6-5-3-0-0-0-0-----6-5--3--1--|

 E|----------------------------------------------------|
 B|----------------------------------------------------|
Gb|----------------------------------------------------| x4
Db|-5-5-5-5-5-5-3-5-3-3-5-8-8-11-11-10-10-10-10-10-8-8-|

 E|-------------------------------------------------------|
 B|-------------------------------------------------------|
Gb|-------7-5-------------------------7-5-----------------| x4
Db|-0-0-0-----6-0-0-0-0-6-5-3-0-0-0-0-----6-5-0-0-3-0-0-1-|

 E|---|
 B|---|
Gb|---| 
Db|-0-|
Добавлено: 27.09.2013
Другие материалы по этой песне:
  • Аккорды и текст

Страница создана 27.09.2013
http://primanota.ru/hang-the-bastard/raw-sorcery-chords.htm
Привет, Гость.
Предлагаем пройти революционный курс по гитаре.
Подарок от PrimaNota.Ru, забирай!