PrimaNota.ru - самый крупный в мире бесплатный архив песенных текстов, аккордов, табулатур и нот


Hang The Bastard - Oblivion - бас-таба, видео

Регистрация Запомнить меня
Войти через:  Facebook Google Twitter Vk Yandex Mail.ru

Hang The Bastard - Oblivion - бас-таба, видео

Печатать
Просмотров: 81
HANG THE BASTARD - OBLIVION

 E|-------------------------------------------------------------------|
 B|-------------------------------------------------------------------|
Gb|-------------------------------------------------------------------|
Db|-00000000000000000000000000000000-12121212121212121212121212121212-|

 E|--------------------------------------------------------------|
 B|--------------------------------------------------------------|
Gb|--- guitar ---------------------------------------------------|
Db|----------------------------------------------0-6-0-0-5-0-0-3-|

 E|--------------------------------------------------------------|
 B|--------------------------------------------------------------|
Gb|----------7-5-7----------7-5-8----------7-5-7-----------------| x4
Db|-0--0-0-0-------0--0-0-0-------0--0-0-0-------0-6-0-0-5-0-0-3-|

 E|-----------------------------------------------------------------|
 B|-----------------------------------------------------------------|
Gb|------------------3-------2-------1------------------------8-8-8-| x2
Db|-0000000000000000---0-0-0---0-0-0---0000000000000000-6-6-6-------|

guitar x1

 E|---------------------------------------------------------------|
 B|---------------------------------------------------------------|
Gb|----------------3-----2-----1-1----------------7h8---5---4---2-| x3
Db|-0--0-0-0-0-0-0---0-0---0-0-----0--0-0-0-0-0-0-----6---5---3---|

 E|--------------------------------------------------------------|
 B|--------------------------------------------------------------|
Gb|----------7-5-7----------7-5-8----------7-5-7-----------------| x4
Db|-0--0-0-0-------0--0-0-0-------0--0-0-0-------0-6-0-0-5-0-0-3-|

 E|-----------------------------------------------------------------|
 B|-----------------------------------------------------------------|
Gb|------------------3-------2-------1------------------------8-8-8-| x2
Db|-0000000000000000---0-0-0---0-0-0---0000000000000000-6-6-6-------|

 E|-----------------------------------|
 B|-----------------------------------|
Gb|--------------------------5--5--5--| x4
Db|-0----0-0-0--0-0-0--0-0-0-6--6--6--|

 E|---------------------------------------------------------|
 B|---------------------------------------------------------|
Gb|---------7-------------8-------------7-------5-----4-----| x4
Db|-0-0-0-0---6-5-0-0-0-0---6-5-0-0-0-0---6-5-6---6-5---5-3-|

 E|---------------------------------------------------------|
 B|---------------------------------------------------------|
Gb|----------------7----------------------------------------| x4
Db|-0-0-0-0-0-0-3-----0-0-0-3-6-3-5-0-0-6-0-0-5-0-0-5h6-3-0-|

 E|------------------------------------------------------------------|
 B|------------------------------------------------------------------|
Gb|--------5-------5--------5---------------5-------5----------------| x8
Db|-0--5h7---7-5h7---0--5h7----7--5--0--5h7---7-5h7---0--5h7-8--7--6-|

improvise over riff x2

 E|------------------------------------------------------------------|
 B|------------------------------------------------------------------|
Gb|--------5-------5--------5---------------5-------5----------------| x2
Db|-0--5h7---7-5h7---0--5h7----7--5--0--5h7---7-5h7---0--5h7-8--7--6-|
Добавлено: 13.08.2013
Другие материалы по этой песне:
  • Аккорды и текст

Страница создана 13.08.2013
http://primanota.ru/hang-the-bastard/oblivion-chords.htm
Привет, Гость.
Предлагаем пройти революционный курс по гитаре.
Подарок от PrimaNota.Ru, забирай!