PrimaNota.ru - самый крупный в мире бесплатный архив песенных текстов, аккордов, табулатур и нот


Hang The Bastard - Levitation Lessons - таба, видео

Регистрация Запомнить меня
Войти через:  Facebook Google Twitter Vk Yandex Mail.ru

Hang The Bastard - Levitation Lessons - таба, видео

Печатать
Просмотров: 60
HANG THE BASTARD - LEVITATION LESSONS

C#|-- x2--|-- x2 -|-------------------------|
G#|-------|-------|-------------------------|
 E|-------|-------|-------------------------| 1,3
 B|-------|-------|-------------------5-----|
F#|-6-5-5-|-5-4-4-|-1-0-----------0-1-3-4-3-|
 B|-6-5-5-|-5-4-4-|-1-0-0-0-0-0-0-0-1---4-3-|

C#|-- x2--|-- x2 -|----------------------------|
G#|-------|-------|----------------------------|
 E|-------|-------|----------------------------| 2,4
 B|-------|-------|----------------------------|
F#|-6-5-5-|-5-4-4-|-1-0------------3---3-4---4-|
 B|-6-5-5-|-5-4-4-|-1-0-0-0-0-0-0----4-----5---|

C#|---------------------------------------|
G#|---------------------------------------|
 E|---------------------------------------| 
 B|---------------------------------------|
F#|-1-0----1-0----1-0--3-4-3-0------------|
 B|-1-0----1-0----1-0--3-4-3-0------------|
   PM     PM     PM

C#|-----------------------------|
G#|-----------------------------|
 E|-----------------------------| 
 B|-----------------------------|
F#|-1-0----1-0------------------|
 B|-1-0----1-0---19/------------|
   PM     PM     

C#|---------------------------------------|
G#|---------------------------------------|
 E|---------------------------------------| 1,3,5,7
 B|---------------------------------------|
F#|-1-0----1-0----1-0--3-4-3-0------------|
 B|-1-0----1-0----1-0--3-4-3-0------------|
   PM     PM     PM

C#|-----------------------------|
G#|-----------------------------|
 E|-----------------------------| 2,6
 B|-----------------------------|
F#|-1-0----1-0----3---------4---|
 B|-1-0----1-0--0---3-4-0-4---5-|
   PM     PM     

C#|--------------------------|
G#|--------------------------|
 E|--------------------------| 4,8 
 B|--------------------------|
F#|-1-0----1-0---3---3-4---4-|
 B|-1-0----1-0-----4-----5---|
   PM     PM     PM

C#|---------------------------------------|
G#|---------------------------------------|
 E|---------------------------------------|
 B|-3h5-3---------------------------------|
F#|-------5-4tr5--------------------------|
 B|---------------------------------------|

C#|---------------------------------------------------|
G#|---------------------------------------------------|
 E|---------------------------------------------------| 1,3
 B|-8-8-8-8-8-8-7-7-7-7-7-7---------------------------|
F#|-5-5-5-5-5-5-4-4-4-4-4-4-1-1-1-1-1-1-1-------3-----|
 B|-5-5-5-5-5-5-4-4-4-4-4-4-1-1-1-1-1-1-1-000-1---4-3-|
                                          PMPM

C#|--------------------------------------------------------|
G#|--------------------------------------------------------|
 E|--------------------------------------------------------|
 B|-8-8-8-8-8-8-7-7-7-7-7-7--------------------------------| 2,4
F#|-5-5-5-5-5-5-4-4-4-4-4-4-1-1-1-1-1-1-1------------------|
 B|-5-5-5-5-5-5-4-4-4-4-4-4-1-1-1-1-1-1-1-0000000000000000-|
                                          PMPMPMPMPMPMPMPM

C#|---------------------------------------|
G#|---------------------------------------|
 E|---------------------------------------|
 B|---------------------------------------|
F#|-------------------stop----------------|
 B|-0000000000000000----------------------|
    PMPMPMPMPMPMPMPM

C#|---------------------------------------|
G#|---------------------------------------|
 E|---------------------------------------| 1,3,5,7
 B|---------------------------------------|
F#|-1-0----1-0----1-0--3-4-3-0------------|
 B|-1-0----1-0----1-0--3-4-3-0------------|
   PM     PM     PM

C#|-----------------------------|
G#|-----------------------------|
 E|-----------------------------| 2,6
 B|-----------------------------|
F#|-1-0----1-0----3---------4---|
 B|-1-0----1-0--0---3-4-0-4---5-|
   PM     PM     

C#|--------------------------|
G#|--------------------------|
 E|--------------------------| 4,8 
 B|--------------------------|
F#|-1-0----1-0---3---3-4---4-|
 B|-1-0----1-0-----4-----5---|
   PM     PM     PM

C#|---------------------------------------|
G#|---------------------------------------|
 E|---------------------------------------|
 B|-3h5-3--------3------------------------|
F#|-------5-4tr5---5-4-3------------------|
 B|---------------------------------------|

END
Добавлено: 27.09.2013
Другие материалы по этой песне:
  • Аккорды и текст

Страница создана 27.09.2013
http://primanota.ru/hang-the-bastard/levitation-lessons-chords.htm
Привет, Гость.
Предлагаем пройти революционный курс по гитаре.
Подарок от PrimaNota.Ru, забирай!