PrimaNota.ru - самый крупный в мире бесплатный архив песенных текстов, аккордов, табулатур и нот


Hang The Bastard - Genesis - таба, видео

Регистрация Запомнить меня
Войти через:  Facebook Google Twitter Vk Yandex Mail.ru

Hang The Bastard - Genesis - таба, видео

Печатать
Просмотров: 53
HANG THE BASTARD - GENESIS 

C#|--------------------------------------------------------|
G#|--------------------------------------------------------|
 E|----------------------------------------------------7h8-| 
 B|-7-------------5-5-5-7-8-8-7-------------------7tr8-----|
F#|-5-------------3-3-3-5-6-6-5-------------6-6-6----------|
 B|---0-0-0-0-0-0---------------0-0-0-0-0-0-6-6-6----------|
      P M P M P M               P M P M P M

C#|----------------------------------------------------|
G#|----------------------------------------------------|
 E|------------------------------------------------5h6-| 
 B|-7-----7-7-7-5-5-5-7-8-8-7-----7-7-7-------5tr6-----|
F#|-5-----5-5-5-3-3-3-5-6-6-5-----5-5-5-6-6-6----------|
 B|---0-0---------------------0-0-------6-6-6----------|
      P M                     P M

C#|--------------------------------------------------------|
G#|--------------------------------------------------------|
 E|--------------------------------------------------------| 
 B|-7-7-7-7-7-7-5-5-5-7-8-8-7-7-7-7-7-------8------10------| 
F#|-5-5-5-5-5-5-3-3-3-5-6-6-5-5-5-5-5-6-6-6-6-stop-8--stop-|
 B|-----------------------------------6-6-6----------------|

C#|-----------------------------------------------|
G#|------------------TRIPLET----------------------|
 E|-----------------------------------------------| 
 B|-7-7-7-7-7-7-5-5-5-7-8-7-7-7-7-7-7-------------| 
F#|-5-5-5-5-5-5-3-3-3-5-6-5-5-5-5-5-5-6-6-6-3-5-3-|
 B|-----------------------------------6-6-6-3-5-3-|                    

C#|------------------------------------------------------|
G#|------------------------------------------------------|
 E|------------------------------------------------------| 
 B|------------------------------------------------------| x2
F#|-3-3-3-3-3-3-3-3-3-5-(0)-6-3-3-3-3-3-3-3-3-3----------|
 B|-3-3-3-3-3-3-3-3-3-5-(0)-6-3-3-3-3-3-3-3-3-3-11111111-|
      P M   P M   P M           P M   P M   P M

C#|--------------------------------------------------------|
G#|--------------------------------------------------------|
 E|----------------------------------------------------7h8-| 
 B|-7-7-7-7-7-7-7-5-5-5-7-8-8-7-7-7-7-7-7-7-------7tr8-----|
F#|-5-5-5-5-5-5-5-3-3-3-5-6-6-5-5-5-5-5-5-5-6-6-6----------|
 B|-----------------------------------------6-6-6----------|                  

C#|----------------------------------------------------|
G#|----------------------------------------------------|
 E|------------------------------------------------5h6-| 
 B|-7-777-7-7-7-5-5-5-7-8-8-7-777-7-7-7-------5tr6-----|
F#|-5-555-5-5-5-3-3-3-5-6-6-5-555-5-5-5-6-6-6----------|
 B|-------------------------------------6-6-6----------|

C#|--------------------------------------------------------|
G#|--------------------------------------------------------|
 E|--------------------------------------------------------| 
 B|-7-7-7-7-7-7-5-5-5-7-8-8-7-7-7-7-7-------8------10------| 
F#|-5-5-5-5-5-5-3-3-3-5-6-6-5-5-5-5-5-6-6-6-6-stop-8--stop-|
 B|-----------------------------------6-6-6----------------|

C#|-----------------------------------------------|
G#|------------------TRIPLET----------------------|
 E|-----------------------------------------------| 
 B|-7-7-7-7-7-7-5-5-5-7-8-7-7-7-7-7-7-------------| 
F#|-5-5-5-5-5-5-3-3-3-5-6-5-5-5-5-5-5-6-6-6-3-5-3-|
 B|-----------------------------------6-6-6-3-5-3-|                    

C#|------------------------------------------------------|
G#|------------------------------------------------------|
 E|------------------------------------------------------| 
 B|------------------------------------------------------| 
F#|-3-3-3-3-3-3-3-3-3-5-(0)-6-3-3-3-3-3-3-3-3-3----------|
 B|-3-3-3-3-3-3-3-3-3-5-(0)-6-3-3-3-3-3-3-3-3-3-11111111-|
      P M   P M   P M           P M   P M   P M

C#|---------------------------------------------------------|
G#|---------------------------------------------------------|
 E|---------------------------------------------------------| 
 B|---------------------------------------------------------| 
F#|-3-3-3-3-3-3-3-3-3-5-(0)-6-3-3-3-3-3-3-3-3-3-------------|
 B|-3-3-3-3-3-3-3-3-3-5-(0)-6-3-3-3-3-3-3-3-3-3-1-1-1-1-1-1-|
      P M   P M   P M           P M   P M   P M

C#|-------------------------------------------------|
G#|-------------------------------------------------|
 E|-------------------------------------------------| 
 B|---------------------------------------3-----3---| 1,3
F#|-0-0-0-0-0-0-0-0-0-1(0)1-0-0-0-0-0-0-5---5-4---4-|
 B|-0-0-0-0-0-0-0-0-0-1(0)1-0-0-0-0-0-0-------------|
      P M   P M   P M         P M   P M

C#|-------------------------------------------------|
G#|-------------------------------------------------|
 E|-------------------------------------------------| 
 B|---------------------------------------7-----5---| 2,4
F#|-0-0-0-0-0-0-0-0-0-1(0)1-0-0-0-0-0-0-8---8-7---7-|
 B|-0-0-0-0-0-0-0-0-0-1(0)1-0-0-0-0-0-0-------------|
      P M   P M   P M         P M   P M

C#|--------------------------------------|
G#|--------------------------------------|
 E|--------------------------------------| 
 B|-5-----5---5-----3--------------------|
F#|-5-----5---5-----3--------3-3---4-----|
 B|-5-----5---5-----3--0-3-5-----5-------|

C#|------------------------------------------------------------|
G#|------------------------------------------------------------|
 E|------------------------------------------------------------| 
 B|----------3---3-----------3---3-----------3---3-------------| 1,2,4
F#|--------5---5-----------4---4-----------5---5---0-1-1-3-5-5-|
 B|-12/------------11/-------------12/-------------0-1-1-3-5-5-|

C#|-----------------------------------------------------------|
G#|-----------------------------------------------------------|
 E|-----------------------------------------------------------| 
 B|----------3---3-----------3---3----------3---3-------------| 3
F#|-----03h5---5--------0h34---4-------0h35---5---0-1-1-3-5-5-|
 B|-12/------------11/-------------12/------------0-1-1-3-5-5-|

slight pause

C#|------------------------------------------------------------|
G#|------------------------------------------------------------|
 E|------------------------------------------------------------| 
 B|------------------------------------------------------------|
F#|------------------------------------------------------------|
 B|-12121212121212121212-1515151515141414151515-20202020202020-|

C#|--------------------------------------|
G#|--------------------------------------|
 E|--------------------------------------| 
 B|--------------------------------------|
F#|--------------1515151515-171717171717-|
 B|-191919191919-------------------------|

C#|---------------------------------------------|
G#|---------------------------------------------|
 E|---------------------------------------------|
 B|-12121212121212121212-1515151515141414151515-|
F#|---------------------------------------------|
 B|---------------------------------------------|

C#|-----------------------------------------------------0-|
G#|-----------------------------------------------------0-|
 E|-----------------------------17^-17^-17^-17^-19^-19^-0-|
 B|-20202020202020-191919191919-------------------------0-|
F#|-----------------------------------------------------0-|
 B|-----------------------------------------------------0-|

------------------------------------------------------------------------

C#|-------------------------------------------------|
G#|-------------------------------------------------|
 E|-------------------------------------------------| 
 B|-------------------------------------------------| 
F#|-12-11-12-11-12-11-12-11-11-10-11-10-11-10-11-10-|
 B|-12-12-12-12-12-12-12-12-11-11-11-11-11-11-11-11-|

C#|-----------------------------|
G#|-----------------------------|
 E|-----------------------------| 
 B|-----------------------------| 
F#|-8-7-8-7-8-7-8-7-0-1-1-3-5-5-|
 B|-8-8-8-8-8-8-8-8-0-1-1-3-5-5-|

play section x2
-----------------------------------------------------------------------

C#|-------------------------------------------------|
G#|-------------------------------------------------|
 E|-------------------------------------------------| 
 B|-------------------------------------------------| 
F#|-12-11-12-11-12-11-12-11-15-14-15-14-15-14-15-14-|
 B|-12-12-12-12-12-12-12-12-15-15-15-15-15-15-15-15-|

C#|-------------------------------------|
G#|-------------------------------------|
 E|-------------------------------------| 
 B|-------------------------------------| 
F#|-11-10-11-10-11-10-11-10-0-1-1-3-5-5-|
 B|-11-11-11-11-11-11-11-11-0-1-1-3-5-5-|

play section x2
--------------------------------------------------------------------------

C#|-------------------------------------|
G#|-------------------------------------|
 E|-------------------------------------| 
 B|-------------------------------------| x2
F#|-12-11-12-11-12-11-12-11-12-11-12-11-|
 B|-12-12-12-12-12-12-12-12-12-12-12-12-|
Добавлено: 08.07.2013
Другие материалы по этой песне:
  • Аккорды и текст

Страница создана 08.07.2013
http://primanota.ru/hang-the-bastard/genesis-chords.htm
Привет, Гость.
Предлагаем пройти революционный курс по гитаре.
Подарок от PrimaNota.Ru, забирай!