PrimaNota.ru - самый крупный в мире бесплатный архив песенных текстов, аккордов, табулатур и нот


Hang The Bastard - Farewell Leicester Square - таба, видео

Регистрация Запомнить меня
Войти через:  Facebook Google Twitter Vk Yandex Mail.ru

Hang The Bastard - Farewell Leicester Square - таба, видео

Печатать
Просмотров: 72
HANG THE BASTARD - FAREWELL LEICESTER SQUARE

C#|------- x2 ----------|---------------------------------|
G#|---------------------|---------------------------------|
 E|-----------0---------|---------------------------------| 
 B|---11---11---11---11-|---------------------------------| 1,3
F#|-9----9---------9----|-11-10-10-10-10-10-10-9-9-9-5-7--|
 B|---------------------|-11-10-10-10-10-10-10-9-9-9-5-7--|

C#|------- x2 ----------|---------------------|
G#|---------------------|---------------------|
 E|-----------0---------|---------------------| 
 B|---11---11---11---11-|---------------------| 2,4
F#|-9----9---------9----|-5-7-7-7-7-10--5-7---|
 B|---------------------|-5-7-7-7-7-10--5-7---|
                                       PM

C#|--------------------------------------------------------------|
G#|--------------------------------------------------------------|
 E|--------------------------------------------------------------| 
 B|--------------------------------------------------------------| 1,3
F#|-4-4-4-5-4-4-4--4-4-4-7-4-4-4--4-4-4-5-4-4-4-11-10-10--10-7-7-|
 B|-4-4-4-5-4-4-4--4-4-4-7-4-4-4--4-4-4-5-4-4-4-11-10-10--10-7-7-|
    P MPM   P MPM  P MPM   P MPM  P MPM   P MPM

C#|-------------------------------------------------------------|
G#|-------------------------------------------------------------|
 E|-------------------------------------------------------------| 
 B|-------------------------------------------------------------| 2,4
F#|-44444-5-44444--44444-7-44444-44444-5-44444-5-7-7--7-10-10---|
 B|-44444-5-44444--44444-7-44444-44444-5-44444-5-7-7--7-10-10---|
    PMPMPM  PMPMPM PMPMPM  PMPMPMPMPMPM  PMPMPM 
    
C#|-----------------------------------------|
G#|-----------------------------------------|
 E|-----------------------------------------| 
 B|-------------------------------4tr5-2tr4-|
F#|-------2---------4---------2-------------|
 B|-2-4-----4-2-4-----5-2-4-----4-----------|

C#|---------------------------------------------|
G#|---------------------------------------------|
 E|---------------------------------------------| 
 B|---------------------------------------------|
F#|-------2---------4---------2---2-4-4-4-4-4-5-|
 B|-2-4-----4-2-4-----5-2-4-----4-2-4-4-4-4-4-5-|
                                    P M P M PM

Repeat all of above minus the intro

C#|-----------------------------------------------|
G#|-----------------------------------------------|
 E|-----------------------------------------------| 
 B|-------------------------------------4tr5-2tr4-|
F#|-------2-----------4-----------2---------------|
 B|-2-4-4---4-4-2-4-4---5-5-2-4-4---4-4-----------|

C#|---------------------------------------------------|
G#|---------------------------------------------------|
 E|---------------------------------------------------| 
 B|---------------------------------------------------|
F#|-------2-----------4-----------2-----2-4-4-4-4-4-5-|
 B|-2-4-4---4-4-2-4-4---5-5-2-4-4---4-4-2-4-4-4-4-4-5-|
                                          P M P MPM
                                          
C#|-----------------------------------------------------|
G#|-----------------------------------------------------|
 E|-----------------------------------------------------| 
 B|-------5-----------5-----------3---------------------| x4
F#|-------------------------------------0-0-0-0-0-0-0-0-|
 B|-5-7-7---7-7-5-7-7---7-7-3-5-5---5-5-0-0-0-0-0-0-0-0-|
                                        P M P M P M P M

SOLO

C#|--------------------------------------------------------------|
G#|--------------------------------------------------------------|
 E|--------------------------------------------------------------| 
 B|--------------------------------------------------------------| 1,3
F#|-4-4-4-5-4-4-4--4-4-4-7-4-4-4--4-4-4-5-4-4-4-11-10-10--10-7-7-|
 B|-4-4-4-5-4-4-4--4-4-4-7-4-4-4--4-4-4-5-4-4-4-11-10-10--10-7-7-|
    P MPM   P MPM  P MPM   P MPM  P MPM   P MPM

C#|-------------------------------------------------------------|
G#|-------------------------------------------------------------|
 E|-------------------------------------------------------------| 
 B|-------------------------------------------------------------| 2,4
F#|-44444-5-44444--44444-7-44444-44444-5-44444-5-7-7--7-10-10---|
 B|-44444-5-44444--44444-7-44444-44444-5-44444-5-7-7--7-10-10---|
    PMPMPM  PMPMPM PMPMPM  PMPMPMPMPMPM  PMPMPM 

C#|-----------------------------------------|
G#|-----------------------------------------|
 E|-----------------------------------------| 
 B|-------------------------------4tr5-2tr4-|
F#|-------2---------4---------2-------------|
 B|-2-4-----4-2-4-----5-2-4-----4-----------|

C#|---------------------------------------------|
G#|---------------------------------------------|
 E|---------------------------------------------| 
 B|---------------------------------------------|
F#|-------2---------4---------2---2-4-4-4-4-4-5-|
 B|-2-4-----4-2-4-----5-2-4-----4-2-4-4-4-4-4-5-|
                                    P M P M PM

C#|-----------------------------------------------|
G#|-----------------------------------------------|
 E|-----------------------------------------------| 
 B|-------------------------------------4tr5-2tr4-|
F#|-------2-----------4-----------2---------------|
 B|-2-4-4---4-4-2-4-4---5-5-2-4-4---4-4-----------|

C#|---------------------------------------------------|
G#|---------------------------------------------------|
 E|---------------------------------------------------| 
 B|---------------------------------------------------|
F#|-------2-----------4-----------2-----2-4-4-4-4-4-5-|
 B|-2-4-4---4-4-2-4-4---5-5-2-4-4---4-4-2-4-4-4-4-4-5-|       
                                          P M P MPM

C#|-----------------------------------------------|
G#|-----------------------------------------------|
 E|-----------------------------------------------| 
 B|-------------------------------------4tr5-2tr4-|
F#|-------2-----------4-----------2---------------|
 B|-2-4-4---4-4-2-4-4---5-5-2-4-4---4-4-----------|

C#|---------------------------------------------------|
G#|---------------------------------------------------|
 E|---------------------------------------------------| 
 B|---------------------------------------------------|
F#|-------2-----------4-----------2-----2-4-4-4-4-4-5-|
 B|-2-4-4---4-4-2-4-4---5-5-2-4-4---4-4-2-4-4-4-4-4-5-|
                                          P M P MPM

C#|-----------------------------------------|
G#|-----------------------------------------|
 E|-----------------------------------------| 
 B|-------------------------------4tr5-2tr4-|
F#|-------2---------4---------2-------------|
 B|-2-4-----4-2-4-----5-2-4-----4-----------|

C#|---------------------------------------------|
G#|---------------------------------------------|
 E|---------------------------------------------| 
 B|---------------------------------------------|
F#|-------2---------4---------2---2-4-4-4-4-4-5-|
 B|-2-4-----4-2-4-----5-2-4-----4-2-4-4-4-4-4-5-|
                                    P M P M PM

C#|-----------------------------------------------|
G#|-----------------------------------------------|
 E|-----------------------------------------------| 
 B|-------------------------------------4tr5-2tr4-|
F#|-------2-----------4-----------2---------------|
 B|-2-4-4---4-4-2-4-4---5-5-2-4-4---4-4-----------|

C#|---------------------------------------------------|
G#|---------------------------------------------------|
 E|---------------------------------------------------| 
 B|---------------------------------------------------|
F#|-------2-----------4-----------2-----2-4-4-4-4-4-5-|
 B|-2-4-4---4-4-2-4-4---5-5-2-4-4---4-4-2-4-4-4-4-4-5-|
                                          P M P MPM

C#|------- x2 ----------|---------------------------------|
G#|---------------------|---------------------------------|
 E|-----------0---------|---------------------------------| 
 B|---11---11---11---11-|---------------------------------| 1,3
F#|-9----9---------9----|-11-10-10-10-10-10-10-9-9-9-5-7--|
 B|---------------------|-11-10-10-10-10-10-10-9-9-9-5-7--|

C#|------- x2 ----------|---------------------|
G#|---------------------|---------------------|
 E|-----------0---------|---------------------| 
 B|---11---11---11---11-|---------------------| 2,4
F#|-9----9---------9----|-5-7-7-7-7-10--5-7---|
 B|---------------------|-5-7-7-7-7-10--5-7---|
                                       PM

SLOW DOWN ON CHORDS ON VERY LAST TIME. 

C#|--------------------------------------------------------|
G#|--------------------------------------------------------|
 E|--------------------------------------------------------| 
 B|-2------------------------------------------------------|
F#|-2------------------------------------------------------|
 B|-2------------------------------------------------------|

C#|-----------------------------------------------------------|
G#|-----------------------------------------------------------|
 E|-----------------------------------------------------------| 
 B|-----------------------------------------------------------| 
F#|-2-4-4-4-4-4-5-2-4-4-4-4-4-7-2-4-4-4-4-4-5-2-4-0-0-4---2---|
 B|-2-4-4-4-4-4-5-2-4-4-4-4-4-7-2-4-4-4-4-4-5-2-4-0-0---5---4-|
      P M P MPM     P M P MPM     P M P MPM       P M

C#|-------------------------------------------------|
G#|-------------------------------------------------|
 E|-------------------------------------------------| 
 B|-------------------------------------------------| 
F#|-2-4-4-4-4-4-5-2-4-4-4-4-4-7-2-4-4-4-4-4-5-2-4-0-|
 B|-2-4-4-4-4-4-5-2-4-4-4-4-4-7-2-4-4-4-4-4-5-2-4-0-|
      P M P MPM     P M P MPM     P M P MPM

C#|-----------------------------------------------------------|
G#|-----------------------------------------------------------|
 E|-----------------------------------------------------------| 
 B|-----------------------------------------------------------| x4 
F#|-2-4-4-4-4-4-5-2-4-4-4-4-4-7-2-4-4-4-4-4-5-2-4-0-0-4---2---|
 B|-2-4-4-4-4-4-5-2-4-4-4-4-4-7-2-4-4-4-4-4-5-2-4-0-0---5---4-|
      P M P MPM     P M P MPM     P M P MPM       P M

C#|-----------------------------------------------------------------|
G#|-----------------------------------------------------------------|
 E|-----------------------------------------------------------------| 
 B|-----------------------------------------------------------------|
F#|-----------------------------------------------------------------|
 B|-2BD-2BD-2BD-2BD-2BD-2BD-2BD-2BD-2BD-2BD-2BD-2BD-2BD-2BD-2BD-2BD-|

C#|-----------------------------------------------------------|
G#|-----------------------------------------------------------|
 E|-----------------------------------------------------------| 
 B|-----------------------------------------------------------| x4 
F#|-2-4-4-4-4-4-5-2-4-4-4-4-4-7-2-4-4-4-4-4-5-2-4-0-0-4---2---|
 B|-2-4-4-4-4-4-5-2-4-4-4-4-4-7-2-4-4-4-4-4-5-2-4-0-0---5---4-| 
      P M P MPM     P M P MPM     P M P MPM       P M

C#|---|
G#|---|
 E|---| 
 B|---| 
F#|---|
 B|-4-|


END 
Добавлено: 25.11.2013
Другие материалы по этой песне:
  • Аккорды и текст

Страница создана 25.11.2013
http://primanota.ru/hang-the-bastard/farewell-leicester-square-chords.htm
Привет, Гость.
Предлагаем пройти революционный курс по гитаре.
Подарок от PrimaNota.Ru, забирай!