PrimaNota.ru - самый крупный в мире бесплатный архив песенных текстов, аккордов, табулатур и нот


Hang The Bastard - Failed Harvest - бас-таба, видео

Регистрация Запомнить меня
Войти через:  Facebook Google Twitter Vk Yandex Mail.ru

Hang The Bastard - Failed Harvest - бас-таба, видео

Печатать
Просмотров: 65
HANG THE BASTARD - FAILED HARVEST

Guitar on It's own x2

 E|---------------------------------------------------------------------|
 B|---------------------------------------------------------------------|
Gb|---------------------------------------------------------------------| x4
Db|-0-0-0-0-0-0-0-0-0-0-0-0-0-0-0-0-0-0-0-0-0-0-0-0-7-7-7-7-10-10-10-10-|

 E|---------------------------------------------------------------|
 B|---------------------------------------------------------------|
Gb|---------------------------------------------------------------| for ages
Db|-0-0-0-0-0-0-0-0-0-0-0-0-0-0-0-0-0-0-0-0-0-0-0-0-0-0-0-0-0-0-0-|

 E|----------- x3 ----------------|-------------------------------|
 B|-------------------------------|-------------------------------|
Gb|-----7---7-----7---7-----7h8-5-|-----7---7-------7h8-7p5-8--7--| x4
Db|-0-0---0---0-0---0---0-0-------|-0-0---0---0-0-0---------------|
Добавлено: 24.06.2013
Другие материалы по этой песне:
  • Аккорды и текст

Страница создана 24.06.2013
http://primanota.ru/hang-the-bastard/failed-harvest-chords.htm
Привет, Гость.
Предлагаем пройти революционный курс по гитаре.
Подарок от PrimaNota.Ru, забирай!